X-Ray Love : Shark Song

VERSE

G |---------------------------------|---------------------------------|---------------------------------|---------------------------------|
D |---------------------------------|---------------------------------|---------------------------------|---------------------------------|
A |-3-------3---3-------3---3---3---|-1-------1---1-------1---1---1---|---------------------------------|---------------------------------|
E |---------------------------------|---------------------------------|-5-----------3---5---5---3---0---|-5-----------3---5---5---3---0---|

G |---------3---5-------5---3-------|---------1---3-------3---1---3---|---------------------------------|---------------------------------|
D |-----------------------------5---|---------------------------------|---------------------------------|---------------------------------|
A |-3-------------------------------|-1-------------------------------|---------------------------------|---------------------------------|
E |---------------------------------|---------------------------------|-5-----------3---5---5---3---0---|-5-----------3---5---5---3---0---|

(x3)

BRIDGE

G |---------------------------------|---------------------------------|---------------------------------|---------------------------------|
D |---------------------------------|---------------------------------|---------------------------------|---------------------------------|
A |---------------------------------|---------------------------------|---------------------------------|---------------------------------|
E |-3---5---5---3---5-------5---0---|-3---5---5---5-------6---6---5---|-3---5---5---3---5-------5---0---|-3---5---5---5-------6---6---5---|

(x3)

REPEAT VERSE

REPEAT BRIDGE

BREAK

G |---------------------------------|---------------------------------|---------------------------------|---------------------------------|
D |---------------------------------|---------------------------------|---------------------------------|---------------------------------|
A |-5-----------5-------0---5-------|-3-----------3-----------3-------|-5-----------5-------0h3h5-------|-3-----------3-------0h1h3-------|
E |---------------------------------|---------------------3-----------|---------------------------------|---------------------------------|

G |---------------------------------|---------------------------------|---------------------------------|---------------------------------|
D |---------------------------------|---------------------------------|---------------------------------|---------------------------------|
A |-5-----------5-------0---5-------|-3-----------3-------0h1h3-------|-5-------5---7-------5-------0---|-3-----------3-------0h1h3-------|
E |---------------------------------|---------------------------------|---------------------------------|---------------------------------|

G |---------------------------------|---------------------------------|---------------------------------|---------------------------------|
D |---------------------------------|---------------------------------|---------------------------------|---------------------------------|
A |-5-----------5-------0---5-------|-3-----------3-------0h1h3-------|-5-------5---7-------5-----------|-3-------------------------------|
E |---------------------------------|---------------------------------|---------------------------------|---------------------------------|

BRIDGE

G |---------------------------------|---------------------------------|---------------------------------|---------------------------------|
D |---------------------------------|---------------------------------|---------------------------------|---------------------------------|
A |---------------------------------|---------------------------------|---------------------------------|---------------------------------|
E |-3---5---5---3---5-------5---0---|-3---5---5---5-------6---6---5---|-3---5---5---3---5-------5---0---|-3---5---5---5-------6---6---5---|

G |---------------------------------|---------------------------------|---------------------------------|---------------------------------|
D |---------------------------------|---------------------------------|---------------------------------|---------------------------------|
A |-3---5---5---3---5-------5---0---|-3---5---5---5-------6---6---5---|-3---5---5---3---5-------5---0---|-3---5---5---5-------6---6---5---|
E |---------------------------------|---------------------------------|---------------------------------|---------------------------------|

(x1)

G |---------------------------------|---------------------------------|---------------------------------|---------------------------------|
D |---------------------------------|---------------------------------|---------------------------------|---------------------------------|
A |---------------------------------|---------------------------------|---------------------------------|---------------------------------|
E |-3---5---5---3---5-------5---0---|-3---5---5---5-------6---6---5---|-3---5---5---3---5-------5---0---|-3---5---5---5-------6---6---5---|

(x5)
VERSE

G |---------------------------------|---------------------------------|---------------------------------|---------------------------------|
D |---------------------------------|---------------------------------|---------------------------------|---------------------------------|
A |-3-------3---3-------3---3---3---|-1-------1---1-------1---1---1---|---------------------------------|---------------------------------|
E |---------------------------------|---------------------------------|-5-----------3---5---5---3---0---|-5-----------3---5---5---3---0---|

G |---------3---5-------5---3-------|---------1---3-------3---1---3---|---------------------------------|---------------------------------|
D |-----------------------------5---|---------------------------------|---------------------------------|---------------------------------|
A |-3-------------------------------|-1-------------------------------|---------------------------------|---------------------------------|
E |---------------------------------|---------------------------------|-5-----------3---5---5---3---0---|-5-----------3---5---5---3---0---|

G |---------------------------------|---------------------------------|---------------------------------|---------------------------------|
D |---------------------------------|---------------------------------|---------------------------------|---------------------------------|
A |-3-------3---3-------3---3---3---|-1-------1---1-------1---1---1---|---------------------------------|---------------------------------|
E |---------------------------------|---------------------------------|-5-------------------------------|---------------------------------|