X-Ray Love : Hey You

VERSE

G |---------------------------------|---------------------------------|---------------------------------|---------------------------------|
D |---------------------------------|-4---5---4-----------------------|---------------------------------|-4---5---4-----------------------|
A |-5---5---5---0---7---7---7---0---|-------------7-------5---4---0---|-5---5---5---0---7---7---7---0---|-------------7-------5---4---0---|
E |---------------------------------|---------------------------------|---------------------------------|---------------------------------|

(x3)

CHORUS

G |---------12------12----------12--|---------10------10----------10--|---------8-------8-----------8---|-8-----------8-----------8-------|
D |-----12------12------12----------|-----10------10------10----------|-----8-------8-------8-----------|-----8-----------8---------------|
A |-10----------------------10------|-8-----------------------8-------|-6-----------------------6-------|---------6-----------6-----------|
E |---------------------------------|---------------------------------|---------------------------------|---------------------------------|

(x3)

REPEAT VERSE

REPEAT CHORUS

ENDING

G |---------------------------------|---------------------------------|---------------------------------|---------------------------------|
D |---------5---5---4---4---5---5---|---------5---5---4---4---5---5---|---------5---5---4---4---5---7---|-----7---5---5---4---4---5---5---|
A |-3---3---------------------------|-5---5---------------------------|-7---7---------------------------|---------------------------------|
E |---------------------------------|---------------------------------|---------------------------------|---------------------------------|

(x10)

G |---------------------------------|---------------------------------|---------------------------------|---------------------------------|
D |---------------------------------|---------------------------------|---------------------------------|---------------------------------|
A |-3---------------3-------3-------|-5---------------5-------5-------|-7-------------------------------|---------------------------------|
E |---------------------------------|---------------------------------|---------------------------------|---------------------------------|