Cardiacs : Nurses Whispering Verses

Original version from "Toy World" and "The Seaside" cassettes.

Intro

E|-------------------------|-------------------------|-------------------------|-------------------------|
B|-------------------------|-------------------------|-------------------------|-------------------------|
G|-7--7--7--7--10-9--7--7--|----------------9--9--9--|-9--12-12-12-12----------|----7--7--7--7--7--7--7--|
D|-------------------------|-8--8--8--8--8-----------|-------------------------|-------------------------|
A|-------------------------|-------------------------|----------------8--8--8--|-8-----------------------|
E|-------------------------|-------------------------|-------------------------|-------------------------|

(x4)

Bridge

E|-------------------------|-------------------------|-------------------------|-------------------------|-------------------------|
B|-------------------------|-------------------------|-------------------------|-------------------------|-------------------------|
G|-7--7--7--7--10-9--7--7--|----------------9--9--9--|-9--12-12-12-12----------|----7--7--7--7--7--7--7--|-7--7--7--7--7--7--7--7--|
D|-------------------------|-8--8--8--8--8-----------|-------------------------|-------------------------|-------------------------|
A|-------------------------|-------------------------|----------------8--8--8--|-8-----------------------|-------------------------|
E|-------------------------|-------------------------|-------------------------|-------------------------|-------------------------|

E|-------------------------|-------------------------|-------------------------|-------------------------|-------------------------|
B|-------------------------|-------------------------|-------------------------|-------------------------|-------------------------|
G|-7--7--7--7--10-9--7--7--|----------------9--9--9--|-9--12-12-12-12----------|----7--7--7--7--7--7--7--|-7--7--7--7--7-----7-----|
D|-------------------------|-8--8--8--8--8-----------|-------------------------|-------------------------|----------------7--------|
A|-------------------------|-------------------------|----------------8--8--8--|-8-----------------------|-------------------------|
E|-------------------------|-------------------------|-------------------------|-------------------------|-------------------------|

Verse 1

E|-10----------------------|-------------------------|-------------------------|-------------------------|-------------------------|
B|-10----------------------|-------------------------|-------------------------|-------------------------|-------------------------|
G|-7-----------------------|-------------------------|-------------------------|-------------------------|-------------------------|
D|-------------------------|-------------------------|-------------------------|-------------------------|-------------------------|
A|-------------------------|-------------------------|-------------------------|-------------------------|-------------------------|
E|-------------------------|-------------------------|-------------------------|-------------------------|-------------------------|

E|-------------------------|-------------------------|-------------------------|-------------------------|-------------------------|
B|-------------------------|-------------------------|-------------------------|-------------------------|-------------------------|
G|-7-----------------------|-------------------------|-------------------------|-------------------------|-------------------------|
D|-------7-----------------|-------------------------|-------------------------|-------------------------|-------------------------|
A|-------------------------|-------------------------|-------------------------|-------------------------|-------------------------|
E|-------------------------|-------------------------|-------------------------|-------------------------|-------------------------|

E|-------------------------|-------------------------|-------------------------|-------------------------|-------------------------|
B|-------------------------|-------------------------|-------------------------|-------------------------|-------------------------|
G|-------------------------|-------------------------|-------------------------|-------------------------|-------------------------|
D|-------------------------|-------------------------|-------------------------|-------------------------|-------------------------|
A|-------------------------|-------------------------|-------------------------|-------------------------|-------------------------|
E|-------------------------|-------------------------|-------------------------|-------------------------|-------------------------|

E|-------------------------|-------------------------|-------------------------|-------------------------|-------------------------|-------------------------|
B|-------------------------|-------------------------|-------------------------|-------------------------|-------------------------|-------------------------|
G|-------------------------|-------------------------|-------------------------|-------------------------|-------------------------|-------------------------|
D|-------------------------|-------------------------|-------------------------|-7-----7-----8-----8-----|-5-----5-----5-----5-----|-8--8--8--8--8-----------|
A|-------------------------|-------------------------|-------------------------|-7-----7-----8-----8-----|-5-----5-----5-----5-----|-8--8--8--8--8-----------|
E|-------------------------|-------------------------|-------------------------|-5-----5-----6-----6-----|-3-----3-----3-----3-----|-6--6--6--6--6-----------|

Bridge

E|-------------------------|-------------------------|-------------------------|-------------------------|-------------------------|
B|-------------------------|-------------------------|-------------------------|-------------------------|-------------------------|
G|-7--7--7--7--10-9--7--7--|----------------9--9--9--|-9--12-12-12-12----------|----7--7--7--7--7--7--7--|-7--7--7--7--7--7--7--7--|
D|-------------------------|-8--8--8--8--8-----------|-------------------------|-------------------------|-------------------------|
A|-------------------------|-------------------------|----------------8--8--8--|-8-----------------------|-------------------------|
E|-------------------------|-------------------------|-------------------------|-------------------------|-------------------------|

E|-------------------------|-------------------------|-------------------------|-------------------------|-------------------------|
B|-------------------------|-------------------------|-------------------------|-------------------------|-------------------------|
G|-7--7--7--7--10-9--7--7--|----------------9--9--9--|-9--12-12-12-12----------|----7--7--7--7--7--7--7--|-7--7--7--7--7-----7-----|
D|-------------------------|-8--8--8--8--8-----------|-------------------------|-------------------------|----------------7--------|
A|-------------------------|-------------------------|----------------8--8--8--|-8-----------------------|-------------------------|
E|-------------------------|-------------------------|-------------------------|-------------------------|-------------------------|

Verse 2

E|-------------------------|-------------------------|-------------------------|-------------------------|-------------------------|
B|-------------------------|-------------------------|-------------------------|-------------------------|-------------------------|
G|-------------------------|-------------------------|-------------------------|-------------------------|-------------------------|
D|-------------------------|-------------------------|-------------------------|-------------------------|-------------------------|
A|-------------------------|-------------------------|-------------------------|-------------------------|-------------------------|
E|-------------------------|-------------------------|-------------------------|-------------------------|-------------------------|

E|-------------------------|-------------------------|-------------------------|-------------------------|-------------------------|-------------------------|
B|-------------------------|-------------------------|-------------------------|-------------------------|-------------------------|-------------------------|
G|-------------------------|-------------------------|-------------------------|-------------------------|-------------------------|-------------------------|
D|-------------------------|-------------------------|-------------------------|-7-----7-----8-----8-----|-5-----5-----5-----5-----|-8--8--8--8--8-----------|
A|-------------------------|-------------------------|-------------------------|-7-----7-----8-----8-----|-5-----5-----5-----5-----|-8--8--8--8--8-----------|
E|-------------------------|-------------------------|-------------------------|-5-----5-----6-----6-----|-3-----3-----3-----3-----|-6--6--6--6--6-----------|

Chorus

E|-------------------------|-------------------------|-------------------------|-------------------------|-------------------|
B|-------------------------|-------------------------|-------------------------|-------------------------|-------------------|
G|-------------------------|-------------------------|-7-----7-----7--7--7-----|-8-----8--10-------------|-------------------|
D|-7-----7-----7--7--7-----|-8-----8-----8--8--8-----|-7-----7-----7--7--7-----|-8-----8--10----------8--|-8--8--8-----8-----|
A|-7-----7-----7--7--7-----|-8-----8-----8--8--8-----|-5-----5-----5--5--5-----|-6-----6--8-----------8--|-8--8--8-----8-----|
E|-5-----5-----5--5--5-----|-6-----6-----6--6--6-----|-------------------------|----------------------6--|-6--6--6-----6-----|
                                                                                                           (only three beats)

E|-------------------------|-------------------------|-------------------------|-------------------------|-------------------------|-------------------------|
B|-------------------------|-------------------------|-------------------------|-------------------------|-------------------------|-------------------------|
G|-------------------------|-------------------------|-7-----7-----7--7--7-----|-8-----8--10-------------|-------------------------|-------------------------|
D|-7-----7-----7--7--7-----|-8-----8-----8--8--8-----|-7-----7-----7--7--7-----|-8-----8--10----------8--|-8--8--8--8--8--8--8--8--|-8--8--8--8--8-----------|
A|-7-----7-----7--7--7-----|-8-----8-----8--8--8-----|-5-----5-----5--5--5-----|-6-----6--8-----------8--|-8--8--8--8--8--8--8--8--|-8--8--8--8--8-----------|
E|-5-----5-----5--5--5-----|-6-----6-----6--6--6-----|-------------------------|----------------------6--|-6--6--6--6--6--6--6--6--|-6--6--6--6--6-----------|

Bridge

E|-------------------------|-------------------------|-------------------------|-------------------------|-------------------------|
B|-------------------------|-------------------------|-------------------------|-------------------------|-------------------------|
G|-7--7--7--7--10-9--7--7--|----------------9--9--9--|-9--12-12-12-12----------|----7--7--7--7--7--7--7--|-7--7--7--7--7--7--7--7--|
D|-------------------------|-8--8--8--8--8-----------|-------------------------|-------------------------|-------------------------|
A|-------------------------|-------------------------|----------------8--8--8--|-8-----------------------|-------------------------|
E|-------------------------|-------------------------|-------------------------|-------------------------|-------------------------|

(x3)

E|-------------------------|-------------------------|-------------------------|-------------------------|-------------------------|
B|-------------------------|-------------------------|-------------------------|-------------------------|-------------------------|
G|-7--7--7--7--10-9--7--7--|----------------9--9--9--|-9--12-12-12-12----------|----7--7--7--7--7--7--7--|-7--7--7--7--7-----7-----|
D|-------------------------|-8--8--8--8--8-----------|-------------------------|-------------------------|----------------7--------|
A|-------------------------|-------------------------|----------------8--8--8--|-8-----------------------|-------------------------|
E|-------------------------|-------------------------|-------------------------|-------------------------|-------------------------|

Verse 3

E|-10----------------------|-------------------------|-------------------------|-------------------------|-------------------------|
B|-10----------------------|-------------------------|-------------------------|-------------------------|-------------------------|
G|-7-----------------------|-------------------------|-------------------------|-------------------------|-------------------------|
D|-------------------------|-------------------------|-------------------------|-------------------------|-------------------------|
A|-------------------------|-------------------------|-------------------------|-------------------------|-------------------------|
E|-------------------------|-------------------------|-------------------------|-------------------------|-------------------------|

E|-------------------------|-------------------------|-------------------------|-------------------------|-------------------------|
B|-------------------------|-------------------------|-------------------------|-------------------------|-------------------------|
G|-------------------------|-------------------------|-------------------------|-------------------------|-------------------------|
D|-------------------------|-------------------------|-------------------------|-------------------------|-------------------------|
A|-------------------------|-------------------------|-------------------------|-------------------------|-------------------------|
E|-------------------------|-------------------------|-------------------------|-------------------------|-------------------------|

E|-------------------------|-------------------------|-------------------------|-------------------------|-------------------------|
B|-------------------------|-------------------------|-------------------------|-------------------------|-------------------------|
G|-------------------------|-------------------------|-------------------------|-------------------------|-------------------------|
D|-------------------------|-------------------------|-------------------------|-------------------------|-------------------------|
A|-------------------------|-------------------------|-------------------------|-------------------------|-------------------------|
E|-------------------------|-------------------------|-------------------------|-------------------------|-------------------------|

E|-------------------------|-------------------------|-------------------------|-------------------------|-------------------------|-------------------------|
B|-------------------------|-------------------------|-------------------------|-------------------------|-------------------------|-------------------------|
G|-------------------------|-------------------------|-------------------------|-------------------------|-------------------------|-------------------------|
D|-------------------------|-------------------------|-------------------------|-7-----7-----8-----8-----|-5-----5-----5-----5-----|-8--8--8--8--8-----------|
A|-------------------------|-------------------------|-------------------------|-7-----7-----8-----8-----|-5-----5-----5-----5-----|-8--8--8--8--8-----------|
E|-------------------------|-------------------------|-------------------------|-5-----5-----6-----6-----|-3-----3-----3-----3-----|-6--6--6--6--6-----------|

Chorus

E|-------------------------|-------------------------|-------------------------|-------------------------|-------------------|
B|-------------------------|-------------------------|-------------------------|-------------------------|-------------------|
G|-------------------------|-------------------------|-7-----7-----7--7--7-----|-8-----8--10-------------|-------------------|
D|-7-----7-----7--7--7-----|-8-----8-----8--8--8-----|-7-----7-----7--7--7-----|-8-----8--10----------8--|-8--8--8-----8-----|
A|-7-----7-----7--7--7-----|-8-----8-----8--8--8-----|-5-----5-----5--5--5-----|-6-----6--8-----------8--|-8--8--8-----8-----|
E|-5-----5-----5--5--5-----|-6-----6-----6--6--6-----|-------------------------|----------------------6--|-6--6--6-----6-----|
                                                                                                           (only three beats)

E|-------------------------|-------------------------|-------------------------|-------------------------|-------------------------|-------------------------|
B|-------------------------|-------------------------|-------------------------|-------------------------|-------------------------|-------------------------|
G|-------------------------|-------------------------|-7-----7-----7--7--7-----|-8-----8--10-------------|-------------------------|-------------------------|
D|-7-----7-----7--7--7-----|-8-----8-----8--8--8-----|-7-----7-----7--7--7-----|-8-----8--10----------8--|-8--8--8--8--8--8--8--8--|-8--8--8--8--8-----------|
A|-7-----7-----7--7--7-----|-8-----8-----8--8--8-----|-5-----5-----5--5--5-----|-6-----6--8-----------8--|-8--8--8--8--8--8--8--8--|-8--8--8--8--8-----------|
E|-5-----5-----5--5--5-----|-6-----6-----6--6--6-----|-------------------------|----------------------6--|-6--6--6--6--6--6--6--6--|-6--6--6--6--6-----------|

Break

Prog bit.

(x1)

Arpeggiated chord 1.

(x4)

Arpeggiated chord 2.

(x2)

Simple riff 1.

(x4)

Simple riff 1.

(x4)

Bridge

E|-------------------------|-------------------------|-------------------------|-------------------------|-------------------------|
B|-------------------------|-------------------------|-------------------------|-------------------------|-------------------------|
G|-7--7--7--7--10-9--7--7--|----------------9--9--9--|-9--12-12-12-12----------|----7--7--7--7--7--7--7--|-7--7--7--7--7--7--7--7--|
D|-------------------------|-8--8--8--8--8-----------|-------------------------|-------------------------|-------------------------|
A|-------------------------|-------------------------|----------------8--8--8--|-8-----------------------|-------------------------|
E|-------------------------|-------------------------|-------------------------|-------------------------|-------------------------|

(x7)

Outro

E|-------------------------|-------------------------|-------------------------|-------------------------|
B|-------------------------|-------------------------|-------------------------|-------------------------|
G|-7--7--7--7--10-9--7--7--|----------------9--9--9--|-9--12-12-12-12----------|----7--7--7--7--7--7--7--|
D|-------------------------|-8--8--8--8--8-----------|-------------------------|-------------------------|
A|-------------------------|-------------------------|----------------8--8--8--|-8-----------------------|
E|-------------------------|-------------------------|-------------------------|-------------------------|

(x3)

E|-------------------------|-------------------------|
B|-------------------------|-------------------------|
G|-7-----------7-----------|-------------------------|
D|----7--7--7-----7--7--7--|-0-----------------------|
A|-------------------------|-------------------------|
E|-------------------------|-------------------------|