Cardiacs : Nurses Whispering Verses

Original version from "Toy World" and "The Seaside" cassettes.

Intro

G|-------------------------|-------------------------|-------------------------|-------------------------|
D|-------------------------|-------------------------|-------------------------|-------------------------|
A|-------------------------|-------------------------|-------------------------|-------------------------|
E|-------------------------|-------------------------|-------------------------|-------------------------|

G|-------------------------|-------------------------|-------------------------|-------------------------|
D|-------------------------|-------------------------|-------------------------|-------------------------|
A|-------------------------|-------------------------|-------------------------|-------------------------|
E|-------------------------|-------------------------|-------------------------|-------------------------|

G|-------------------------|-------------------------|-------------------------|-------------------------|
D|-------------------------|-------------------------|-------------------------|-------------------------|
A|-5--5--5--5--5--5--5--5--|-5--5--5--5--5--5--5--5--|-5--5--5--5--5--5--5--5--|-5--5--5--5--5--5--5--5--|
E|-------------------------|-------------------------|-------------------------|-------------------------|
(palm muted)

G|-------------------------|-------------------------|-------------------------|-------------------------|
D|-------------------------|-------------------------|-------------------------|-------------------------|
A|-5--5--5--5--5--5--5--5--|-5--5--5--5--5--5--5--5--|-5--5--5--5--5--5--5--5--|-5--5--5--5--5--5--5--5--|
E|-------------------------|-------------------------|-------------------------|-------------------------|
(palm muted)

Bridge

G|-------------7--7--7--7--|-------------------------|-------------------------|-------------------------|-------------3--3--3--3--|
D|-------------------------|-5--5--5--5--------------|-------------3--3--3--3--|-2--2--2--2--------------|-3--3--3--3--------------|
A|-5--5--5--5--------------|-------------------------|-1--1--1--1--------------|-------------1--1--1--1--|-------------------------|
E|-------------------------|-------------3--3--3--3--|-------------------------|-------------------------|-------------------------|

(x2)

Verse 1

G|-------------------------|-------------------------|-------------------------|-------------------------|-------------------------|
D|-------------------------|-------------------------|-------------------------|-------------------------|-------------------------|
A|-5--5--5--5--5--5--5--5--|-5--5--5--5--5--5--5--5--|-5--5--5--5--5--5--5--5--|-5--5--5--5--5--5--5--5--|-5--5--5--5--5--5--5--5--|
E|-------------------------|-------------------------|-------------------------|-------------------------|-------------------------|

(x3)

G|-------------------------|-------------------------|-------------------------|-------------------------|-------------------------|-------------------------|
D|-------------------------|-------------------------|-------------------------|-------------------------|-------------------------|-------------------------|
A|-5--5--5--5--5--5--5--5--|-5--5--5--5--5--5--5--5--|-5--5--5--5--5--5--5--5--|-0-----0-----1-----1-----|-------------------------|-1--1--1--1--1-----------|
E|-------------------------|-------------------------|-------------------------|-------------------------|-3--3--3--3--3--3--3--3--|-------------------------|

Bridge

G|-------------7--7--7--7--|-------------------------|-------------------------|-------------------------|-------------3--3--3--3--|
D|-------------------------|-5--5--5--5--------------|-------------3--3--3--3--|-2--2--2--2--------------|-3--3--3--3--------------|
A|-5--5--5--5--------------|-------------------------|-1--1--1--1--------------|-------------1--1--1--1--|-------------------------|
E|-------------------------|-------------3--3--3--3--|-------------------------|-------------------------|-------------------------|

(x2)

Verse 2

G|-------------------------|-------------------------|-------------------------|-------------------------|-------------------------|
D|-------------------------|-------------------------|-------------------------|-------------------------|-------------------------|
A|-5--5--5--5--5--5--5--5--|-5--5--5--5--5--5--5--5--|-5--5--5--5--5--5--5--5--|-5--5--5--5--5--5--5--5--|-5--5--5--5--5--5--5--5--|
E|-------------------------|-------------------------|-------------------------|-------------------------|-------------------------|

(x1)

G|-------------------------|-------------------------|-------------------------|-------------------------|-------------------------|-------------------------|
D|-------------------------|-------------------------|-------------------------|-------------------------|-------------------------|-------------------------|
A|-5--5--5--5--5--5--5--5--|-5--5--5--5--5--5--5--5--|-5--5--5--5--5--5--5--5--|-0-----0-----1-----1-----|-------------------------|-1--1--1--1--1-----------|
E|-------------------------|-------------------------|-------------------------|-------------------------|-3--3--3--3--3--3--3--3--|-------------------------|

Chorus

G|-------------------------|-------------------------|-------------------------|-------------------------|-------------------|
D|-------------------------|-------------------------|-------------------------|-------------------------|-------------------|
A|-------------------------|-------------------------|-5-----5-----5--5--5-----|-6-----6--8--------------|-------------------|
E|-5-----5-----5--5--5-----|-6-----6-----6--6--6-----|-------------------------|----------------------6--|-6--6--6-----6-----|
                                                                                                           (only three beats)

G|-------------------------|-------------------------|-------------------------|-------------------------|-------------------------|-------------------------|
D|-------------------------|-------------------------|-------------------------|-------------------------|-------------------------|-------------------------|
A|-------------------------|-------------------------|-5-----5-----5--5--5-----|-6-----6--8--------------|-------------------------|-------------------------|
E|-5-----5-----5--5--5-----|-6-----6-----6--6--6-----|-------------------------|----------------------6--|-6--6--6--6--6--6--6--6--|-6--6--6--6--6-----------|

Bridge

G|-------------7--7--7--7--|-------------------------|-------------------------|-------------------------|-------------3--3--3--3--|
D|-------------------------|-5--5--5--5--------------|-------------3--3--3--3--|-2--2--2--2--------------|-3--3--3--3--------------|
A|-5--5--5--5--------------|-------------------------|-1--1--1--1--------------|-------------1--1--1--1--|-------------------------|
E|-------------------------|-------------3--3--3--3--|-------------------------|-------------------------|-------------------------|

(x4)

Verse 3

G|-------------------------|-------------------------|-------------------------|-------------------------|-------------------------|
D|-------------------------|-------------------------|-------------------------|-------------------------|-------------------------|
A|-5--5--5--5--5--5--5--5--|-5--5--5--5--5--5--5--5--|-5--5--5--5--5--5--5--5--|-5--5--5--5--5--5--5--5--|-5--5--5--5--5--5--5--5--|
E|-------------------------|-------------------------|-------------------------|-------------------------|-------------------------|

(x3)

G|-------------------------|-------------------------|-------------------------|-------------------------|-------------------------|-------------------------|
D|-------------------------|-------------------------|-------------------------|-------------------------|-------------------------|-------------------------|
A|-5--5--5--5--5--5--5--5--|-5--5--5--5--5--5--5--5--|-5--5--5--5--5--5--5--5--|-0-----0-----1-----1-----|-------------------------|-1--1--1--1--1-----------|
E|-------------------------|-------------------------|-------------------------|-------------------------|-3--3--3--3--3--3--3--3--|-------------------------|

Chorus

G|-------------------------|-------------------------|-------------------------|-------------------------|-------------------|
D|-------------------------|-------------------------|-------------------------|-------------------------|-------------------|
A|-------------------------|-------------------------|-5-----5-----5--5--5-----|-6-----6--8--------------|-------------------|
E|-5-----5-----5--5--5-----|-6-----6-----6--6--6-----|-------------------------|----------------------6--|-6--6--6-----6-----|
                                                                                                           (only three beats)

G|-------------------------|-------------------------|-------------------------|-------------------------|-------------------------|-------------------------|
D|-------------------------|-------------------------|-------------------------|-------------------------|-------------------------|-------------------------|
A|-------------------------|-------------------------|-5-----5-----5--5--5-----|-6-----6--8--------------|-------------------------|-------------------------|
E|-5-----5-----5--5--5-----|-6-----6-----6--6--6-----|-------------------------|----------------------6--|-6--6--6--6--6--6--6--6--|-6--6--6--6--6-----------|

Break

G|-------------------------|-------------------------|-------------------------|
D|-------------------------|-------------------------|-------------------------|
A|-5-----------------------|-6-----------------------|-------------------------|
E|-------------------------|----------------8--------|-6-----------------------|

G|-------------------------|-------------------------|-------------------------|
D|-------------------------|-2-----------5-----------|-------------------------|
A|-2-----------------------|-------------------------|-------------------------|
E|-------------------------|-------------------------|-------------------------|

(x1)

G|-------------------------|-------------------------|-------------------------|
D|-------------------------|-------------------------|-------------------------|
A|-5-----------------------|-5-----------5-----------|-------------------------|
E|-------------------------|-------------------------|-------------------------|

(x4)

G|-------------7-----------|-------------7-----------|-------------7-----------|-------------7-----------|-------------7-----------|
D|-------------------------|-------------------------|-------------------------|-------------------------|-------------------------|
A|-5-----5-----------5-----|-5-----5-----------5-----|-5-----5-----------5-----|-5-----5-----------5-----|-5-----5-----------5-----|
E|-------------------------|-------------------------|-------------------------|-------------------------|-------------------------|

(x4)

G|-------------------------|-------------------------|-------------------------|-------------------------|-------------------------|
D|-------------------------|-------------------------|-------------------------|-------------------------|-------------------------|
A|-5--5--5--5--5--5--5--5--|-5--5--5--5--5--5--5--5--|-5--5--5--5--5--5--5--5--|-5--5--5--5--5--5--5--5--|-5--5--5--5--5--5--5--5--|
E|-------------------------|-------------------------|-------------------------|-------------------------|-------------------------|

(x4)

Bridge

G|-------------7--7--7--7--|-------------------------|-------------------------|-------------------------|-------------3--3--3--3--|
D|-------------------------|-5--5--5--5--------------|-------------3--3--3--3--|-2--2--2--2--------------|-3--3--3--3--------------|
A|-5--5--5--5--------------|-------------------------|-1--1--1--1--------------|-------------1--1--1--1--|-------------------------|
E|-------------------------|-------------3--3--3--3--|-------------------------|-------------------------|-------------------------|

(x7)

Outro

G|-------------------------|-------------------------|-------------------------|-------------------------|
D|-------------------------|-------------------------|-------------------------|-------------------------|
A|-5-----------------------|-5---------------------5-|-------5-----------------|-------------------------|
E|-------------------------|-------------------------|-------------------------|-------------------------|

(x3)