Joy Division : Walked In Line

INTRO

G |-------------------------|-------------------------|-------------------------|-------------------------|
D |-------------------------|-------------------------|-------------------------|-------------------------|
A |-2-----2--2--2--2--2--2--|-2--2--2--0--2-----------|-------------------------|-------------------------|
E |-------------------------|-------------------5-----|-3-----3--3--3--3--3--3--|-3--3--3--0--3-----5-----|

G |-------------------------|-------------------------|-------------------------|-------------------------|
D |-------------------------|-------------------------|-------------------------|-------------------------|
A |-2-----2--2--2--2--2--2--|-2--2--2--0--2-----------|-------------------------|-------------------------|
E |-------------------------|-------------------5-----|-3-----3--3--3--3--3--3--|-5--5--5--5--9-----10----|
                                                                                            /

G |-------------------------|-------------------------|-------------------------|-------------------------|
D |-------------------------|-------------------------|-------------------------|-------------------------|
A |-2-----2--2--2--2--2--2--|-2--2--2--0--2-----------|-------------------------|-------------------------|
E |-------------------------|-------------------5-----|-3-----3--3--3--3--3--3--|-3--0--3--0--3-----5-----|

G |-------------------------|-------------------------|-------------------------|-------------------------|
D |-------------------------|-------------------------|-------------------------|-------------------------|
A |-2-----2--2--2--2--2--2--|-2--2--2--0--2-----------|-------------------------|-------------------------|
E |-------------------------|-------------------5-----|-3-----3--3--3--3--3--3--|-5--5--5--5--9-----10----|
                                                                                            /

VERSE

G |-------------------------|-------------------------|-------------------------|-------------------------|
D |-------------------------|-------------------------|-------------------------|-------------------------|
A |-2-----2--2--2--2--2--2--|-2--2--2--0--2-----------|-------------------------|-------------------------|
E |-------------------------|-------------------5-----|-3-----3--3--3--3--3--3--|-3--0--3--0--3-----5-----|

G |-------------------------|-------------------------|-------------------------|-------------------------|
D |-------------------------|-------------------------|-------------------------|-------------------------|
A |-2-----2--2--2--2--2--2--|-2--2--2--0--2-----------|-------------------------|-------------------------|
E |-------------------------|-------------------5-----|-3-----3--3--3--3--3--3--|-5--5--5--5--9-----10----|
                                                                                            /

CHORUS

G |-------------------------|-------------------------|-------------------------|-------------------------|
D |-------------------------|-------------------------|-------------------------|-------------------------|
A |-2-----2--2--2--2--2--2--|-2--2--2--0--2-----------|-------------------------|-------------------------|
E |-------------------------|-------------------5-----|-3-----3--3--3--3--3--3--|-3--0--3--0--3-----5-----|

G |-------------------------|-------------------------|-------------------------|-------------------------|
D |-------------------------|-------------------------|-------------------------|-------------------------|
A |-2-----2--2--2--2--2--2--|-2--2--2--0--2-----------|-------------------------|-------------------------|
E |-------------------------|-------------------5-----|-3-----3--3--3--3--3--3--|-5--5--5--5--9-----10----|
                                                                                            /

BRIDGE

G |-------------------------|-------------------------|-------------------------|-------------------------|
D |-------------------------|-------------------------|-------------------------|-------------------------|
A |-2-----2--2--2--2--2--2--|-2--2--2--0--2-----------|-------------------------|-------------------------|
E |-------------------------|-------------------5-----|-3-----3--3--3--3--3--3--|-5--5--5--5--9-----10----|
                                                                                            /

REPEAT VERSE AND CHORUS

REPEAT VERSE (GUITAR SOLO)

BREAK

G |-------------------------|-------------------------|-------------------------|-------------------------|
D |-------------------------|-------------------------|-------------------------|-------------------------|
A |-2-----2-2-2-2-----2-2-2-|-2-----2-2-2-2--2--------|-------------------------|-------------------------|
E |-------------------------|-------------------5-----|-3-----3-3-3-3-----3-3-3-|-3-----3-3-3-3--3--5-----|

REPEAT VERSE AND CHORUS

REPEAT VERSE (GUITAR SOLO)

REPEAT BREAK

DOUBLE CHORUS

G |-------------------------|-------------------------|-------------------------|-------------------------|
D |-------------------------|-------------------------|-------------------------|-------------------------|
A |-2-----2--2--2--2--2--2--|-2--2--2--0--2-----------|-------------------------|-------------------------|
E |-------------------------|-------------------5-----|-3-----3--3--3--3--3--3--|-3--0--3--0--3-----5-----|

(x3)

G |-------------------------|-------------------------|-------------------------|-------------------------|
D |-------------------------|-------------------------|-------------------------|-------------------------|
A |-2-----2--2--2--2--2--2--|-2--2--2--0--2-----------|-------------------------|-------------------------|
E |-------------------------|-------------------5-----|-3-----3--3--3--3--3--3--|-5--5--5--5--9-----10----|
                                                                                            /

OUTRO

G |-------------------------|-------------------------|-------------------------|-------------------------|
D |-------------------------|-------------------------|-------------------------|-------------------------|
A |-2-----2--2--2--2--2--2--|-2--2--2--0--2-----------|-------------------------|-------------------------|
E |-------------------------|-------------------5-----|-3-----3--3--3--3--3--3--|-3--0--3--0--3-----5-----|

G |-------------------------|
D |-------------------------|
A |-2-----------------------|
E |-------------------------|