Joy Division : Disorder

INTRO

G |-------------------------|-------------------------|-------------------------|-------------------------|
D |-13----13-13-13-13-13-13-|-5-----5--5-----5--5--5--|-------------------------|-5-----5--5-----5--5--5--|
A |-------------------------|-------------------------|-------------------------|-------------------------|
E |-------------------------|-------------------------|-6-----6--6--6--6--6--6--|-------------------------|

(x4)

VERSE

G |-------------------------|-------------------------|-------------------------|-------------------------|
D |-13----13-13-13-13-13-13-|-5-----5--5-----5--5--5--|-------------------------|-5-----5--5-----5--5--5--|
A |-------------------------|-------------------------|-------------------------|-------------------------|
E |-------------------------|-------------------------|-6-----6--6--6--6--6--6--|-------------------------|

(x4)

CHORUS I

G |-------------------------|-------------------------|-------------------------|-------------------------|
D |-13----13-13-13-13-13-13-|-12-13-12-5-----5--5--5--|-------------------------|-5-----5--5-----5--5--5--|
A |-------------------------|-------------------------|-------------------------|-------------------------|
E |-------------------------|-------------------------|-6-----6--6--6--6--6--6--|-------------------------|

(x1)

G |-------------------------|-------------------------|-------------------------|-------------------------|
D |-13----13-13-13-13-13-13-|-12-13-12-5-----5--5--5--|-------------------------|----------------5--5--5--|
A |-------------------------|-------------------------|-------------------------|-5-----------------------|
E |-------------------------|-------------------------|-6-----6--6--6--6--6--6--|----7--6--0--------------|

(x3)

G |-------------------------|-------------------------|-------------------------|-------------------------|
D |-13----13-13-13-13-13-13-|-5-----5--5-----5--5--5--|-------------------------|-5-----5--5-----5--5--5--|
A |-------------------------|-------------------------|-------------------------|-------------------------|
E |-------------------------|-------------------------|-6-----6--6--6--6--6--6--|-------------------------|

(x2)

REPEAT VERSE
CHORUS II

G |-------------------------|-------------------------|-------------------------|-------------------------|
D |-13----13-13-13-13-13-13-|-12-13-12-5-----5--5--5--|-------------------------|-5-----5--5-----5--5--5--|
A |-------------------------|-------------------------|-------------------------|-------------------------|
E |-------------------------|-------------------------|-6-----6--6--6--6--6--6--|-------------------------|

(x1)

G |-------------------------|-------------------------|-------------------------|-------------------------|
D |-13----13-13-13-13-13-13-|-12-13-12-5-----5--5--5--|-------------------------|----------------5--5--5--|
A |-------------------------|-------------------------|-------------------------|-5-----------------------|
E |-------------------------|-------------------------|-6-----6--6--6--6--6--6--|----7--6--0--------------|

(x4)

G |-------------------------|-------------------------|-------------------------|-------------------------|
D |-13----13-13-13-13-13-13-|-5-----5--5-----5--5--5--|-------------------------|-5-----5--5-----5--5--5--|
A |-------------------------|-------------------------|-------------------------|-------------------------|
E |-------------------------|-------------------------|-6-----6--6--6--6--6--6--|-------------------------|

(x1)

REPEAT VERSE

OUTRO

G |-------------------------|-------------------------|-------------------------|-------------------------|
D |-13----13-13-13-13-13-13-|-5-----5--5-----5--5--5--|-------------------------|-5-----5--5-----5--5--5--|
A |-------------------------|-------------------------|-------------------------|-------------------------|
E |-------------------------|-------------------------|-6-----6--6--6--6--6--6--|-------------------------|

(x2)

G |-------------------------|-------------------------|-------------------------|-------------------------|
D |-------------------------|-------------------------|-------------------------|-------------------------|
A |-------------------------|-------------------------|-------------------------|-------------------------|
E |-1--1--1--1--1--1--1--1--|-1--1--1--1--1--1--1--1--|-1--2--3--4--5--6--7--8--|-9-----12-----9-----12---|
                                                         /  /  /  /  /  /  /         /            /
G |-------------------------|-------------------------|-------------------------|-------------------------|
D |-------------------------|-------------------------|-------------------------|-------------------------|
A |-------------------------|-------------------------|-------------------------|-------------------------|
E |-9--12-12-12----12-12-12-|-9-----12-----9-----12---|-9--12-12-12----12-12-12-|-9-----12-----9-----12---|
     /                           /            /          /                           /            /
G |-------------------------|-------------------------|-------------------------|-------------------------|
D |-------------------------|-------------------------|-------------------------|-------------------------|
A |-------------------------|-------------------------|-------------------------|-------------------------|
E |-9--12-12-12----12-12-12-|-9-----12-----9-----12---|-9--12-12-12----12-12-12-|-9-----------------------|
     /                           /            /          /