Joy Division : Dead Souls

VERSE

G |-------------------------|-------------------------|-------------------------|-------------------------|
D |--------------------8----|-------------------------|-------------------8--10-|-------------------------|
A |-10-10-10-10-10-10----10-|----8--8--8--8--8--8-----|-10-10-10-10-10-10-------|----8--8--8--8--8--8-----|
E |-------------------------|-------------------------|-------------------------|-------------------------|

(x2)

G |-------------------------|-------------------------|-------------------------|-------------------------|
D |-------------------8--10-|-------------------------|--------------------8----|-------------------------|
A |-10-10-10-10-10-10-------|----8--8--8--8--8--8-----|-10-10-10-10-10-10----10-|----8--8--8--8--8--8-----|
E |-------------------------|-------------------------|-------------------------|-------------------------|

(x2)

G |-------------------------|-------------------------|-------------------------|-------------------------|
D |--------------------8----|-------------------------|-------------------8--10-|-------------------------|
A |-10-10-10-10-10-10----10-|----8--8--8--8--8--8-----|-10-10-10-10-10-10-------|----8--8--8--8--8--8-----|
E |-------------------------|-------------------------|-------------------------|-------------------------|

G |-------------------------|-------------------------|-------------------------|----------------------88-|
D |--------------------8----|-------------------------|-------------------8--10-|-------------------------|
A |-10-10-10-10-10-10----10-|----8--8--8--8--8--8-----|-10-10-10-10-10-10-------|----8--8--8--8--8--8-----|
E |-------------------------|-------------------------|-------------------------|-------------------------|

CHORUS

G |-10----10-10-10----8-----8--8--8-----8-------------|---------------------------------------------------|
D |-------------------------------------------8-------|-10----10-10-10----8-----------------------8--8----|
A |---------------------------------------------------|-------------------------------10----8-------------|
E |---------------------------------------------------|---------------------------------------------------|

(x3)

G |-10----10-10-10----8-----8--8--8-----8-------------|---------------------------------------------------|
D |-------------------------------------------8-------|-10----10----8-----8-------------------------------|
A |---------------------------------------------------|-------------------------11----11----10----10------|
E |---------------------------------------------------|---------------------------------------------------|

REPEAT VERSE AND CHORUS

VERSE

G |-------------------------|-------------------------|-------------------------|-------------------------|
D |--------------------8----|-------------------------|-------------------8--10-|-------------------------|
A |-10-10-10-10-10-10----10-|----8--8--8--8--8--8--8--|-10-10-10-10-10-10-------|----8--8--8--8--8--8--8--|
E |-------------------------|-------------------------|-------------------------|-------------------------|

(x2)

REPEAT CHORUS
VERSE

G |-------------------------|-------------------------|-------------------------|-------------------------|
D |--------------------8----|-------------------------|-------------------8--10-|-------------------------|
A |-10-10-10-10-10-10----10-|----8--8--8--8--8--8--8--|-10-10-10-10-10-10-------|----8--8--8--8--8--8--8--|
E |-------------------------|-------------------------|-------------------------|-------------------------|

(x3)

REPEAT CHORUS

BRIDGE

G |---------------------------------------------------|-------------------------------8-------------------|
D |---------------------------------------------------|----------------------8--8--10-------10----8-------|
A |-10----10----10----10-10-10----10----10----10-10---|-10----10----10------------------------------------|
E |---------------------------------------------------|---------------------------------------------------|

G |---------------------------------------------------|-------------------------------8-----------8-------|
D |---------------------------------------------------|----------------------8--8--10-------10------------|
A |-10----10----10----10-10-10----10----10----10-10---|-10----10----10------------------------------------|
E |---------------------------------------------------|---------------------------------------------------|

(x2)

REPEAT CHORUS

OUTRO

G |-10----10-10-10----10-10-10----10-10-10----12-12---|-12----13-13-13----12-12-12----10-10-10----8-------|
D |---------------------------------------------------|---------------------------------------------------|
A |---------------------------------------------------|---------------------------------------------------|
E |---------------------------------------------------|---------------------------------------------------|

G |-8-----8--8--8-----8--8--8-----8--8--8-----10-10---|-10----13-13-13----12-12-12----10-10-10-----8------|
D |---------------------------------------------------|---------------------------------------------------|
A |---------------------------------------------------|---------------------------------------------------|
E |---------------------------------------------------|---------------------------------------------------|

(x2)

G |-10---10-10-10----10-10-10----10-10-10----10-10----|-10----10-10-10----10-10-10----10-10-10----10-10---|
D |---------------------------------------------------|---------------------------------------------------|
A |---------------------------------------------------|---------------------------------------------------|
E |---------------------------------------------------|---------------------------------------------------|

(x3)

G |-10---10-10-10----10-10-10----10-10-10----10-10----|-10----10-10-10----10-10-10----10-10-10------------|
D |---------------------------------------------------|---------------------------------------------------|
A |---------------------------------------------------|---------------------------------------------------|
E |---------------------------------------------------|---------------------------------------------------|