Joy Division : Ceremony

INTRO

G |-------17----17-------17-|-------17----17----17----|-------17----17-------17-|-------17----17----17----|
D |-15-------15-------15----|----15----15----15----0--|-------------------------|----------------------0--|
A |-------------------------|-------------------------|-15-------15-------15----|----15----15----15-------|
E |-------------------------|-------------------------|-------------------------|-------------------------|

(x7)

G |-------------------------|-------------------------|-------------------------|-------------------------|
D |-------15----15-------15-|-------15----15----15----|-------------10-------10-|-------10----10----10----|
A |-------------------------|-------------------------|-------------------------|-------------------------|
E |-13-------13-------13----|----13----13----13-------|-8-----8--8--------8-----|----8-----8-----8--------|

(x2)

VERSE

G |-------------------------|-------------------------|-------------------------|-------------------------|
D |-------15----15-------15-|-------15----15----15----|-------------10-------10-|-------10----10----10----|
A |-------------------------|-------------------------|-------------------------|-------------------------|
E |-13-------13-------13----|----13----13----13-------|-8-----8--8--------8-----|----8-----8-----8--------|

(x4)

CHORUS I

G |-17----17-17-17-17-17-17-|-17-17-17-17-17-17-17----|-12----12-12-12-12-12-12-|-12-12-12-12-12-12-12----|
D |-15----15-15-15-15-15-15-|-15-15-15-15-15-15-15----|-10----10-10-10-10-10-10-|-10-10-10-10-10-10-10----|
A |-------------------------|-------------------------|-------------------------|-------------------------|
E |-------------------------|-------------------------|-------------------------|-------------------------|

(x4)

G |-17----17-17-17-17-17-17-|-17-17-17-17-17-17-17----|-------12----12-------12-|-------12----12----12----|
D |-15----15-15-15-15-15-15-|-15-15-15-15-15-15-15----|-10-------10-------10----|----10----10----10-------|
A |-------------------------|-------------------------|-------------------------|-------------------------|
E |-------------------------|-------------------------|-------------------------|-------------------------|

BRIDGE

G |-------------------------|-------------------------|-------------------------|-------------------------|
D |-------15----15-------15-|-------15----15----15----|-------------10-------10-|-------10----10----10----|
A |-------------------------|-------------------------|-------------------------|-------------------------|
E |-13-------13-------13----|----13----13----13-------|-8-----8--8--------8-----|----8-----8-----8--------|

(x4)

CHORUS II

G |-17----17-17-17-17-17-17-|-17-17-17-17-17-17-17----|-12----12-12-12-12-12-12-|-12-12-12-12-12-12-12----|
D |-15----15-15-15-15-15-15-|-15-15-15-15-15-15-15----|-10----10-10-10-10-10-10-|-10-10-10-10-10-10-10----|
A |-------------------------|-------------------------|-------------------------|-------------------------|
E |-------------------------|-------------------------|-------------------------|-------------------------|

(x4)
BRIDGE

G |-10----10-10-10-10-10-10-|-10-10-10-10-10-9--10-12-|----------------------9--|-------9-----9--10-12-12-|
D |-------------------------|-------------------------|-10----10-10-10-10-10----|----10----10-------------|
A |-------------------------|-------------------------|-------------------------|-------------------------|
E |-------------------------|-------------------------|-------------------------|-------------------------|

(x8)

OUTRO

G |-17----17-17-17-17-17-17-|-17-17-17-17-17-17-17----|-12----12-12-12-12-12-12-|-12-12-12-12-12-12-12----|
D |-15----15-15-15-15-15-15-|-15-15-15-15-15-15-15----|-10----10-10-10-10-10-10-|-10-10-10-10-10-10-10----|
A |-------------------------|-------------------------|-------------------------|-------------------------|
E |-------------------------|-------------------------|-------------------------|-------------------------|

(x3)

G |-17----17-17-17-17-17-17-|-17-17-17-17-17-17-17----|-12----------------------|-------------------------|
D |-15----15-15-15-15-15-15-|-15-15-15-15-15-15-15----|-10----------------------|-------------------------|
A |-------------------------|-------------------------|-------------------------|-------------------------|
E |-------------------------|-------------------------|-------------------------|-------------------------|