The Jam : Private Hell

Tuning : E A D G

INTRO

G|-------------------------|-------------------------|-------------------------|-------------------------|
D|-------------------------|-------------------------|-------------------------|-------------------------|
A|-7--7--7--7--7--7--7--7--|-7--7--7--7--7--7--7--7--|-7--7--7--7--7--7--7--7--|-7--7--7--7--7--7--7--7--|
E|-------------------------|-------------------------|-------------------------|-------------------------|

VERSE I

G|-------------------------|-------------------------|-------------------------|-------------------------|
D|-------------------------|-------------------------|-------------------------|-------------------------|
A|-7--7--7--7--7--7--7--7--|-7--7--7--7--7--7--7--7--|-7--7--7--7--7--7--7--7--|-7--7--7--7--7--7--7--7--|
E|-------------------------|-------------------------|-------------------------|-------------------------|

G|-------------------------|-------------------------|-------------------------|-------------------------|
D|-------------------------|-------------------------|-------------------------|-------------------------|
A|-7--7--7--7--7--7--7--7--|-7--7--7--7--7--7--7--7--|-7--7--7--7--7--7--7--7--|-7--7--7--7--7--7--7--7--|
E|-------------------------|-------------------------|-------------------------|-------------------------|

G|-------------------------|-------------------------|-------------7-----------|
D|----------5--------------|-------------------------|-------7--9-----9--7-----|
A|-3-----3--------3--3--3--|-7--7--7--7--7--7--7--7--|-7--10----------------10-|
E|-------------------------|-------------------------|-------------------------|

G|-------------------------|-------------------------|-------------------------|-------------------------|
D|-------------------------|-------------------------|-------------------------|-------------------------|
A|-7--7--7--7--7--7--7--7--|-7--7--7--7--7--7--7--7--|-7--7--7--7--7--7--7--7--|-7--7--7--7--7--7--7--7--|
E|-------------------------|-------------------------|-------------------------|-------------------------|

G|-------------------------|-------------------------|-------------7-----------|
D|----------5--------------|-------------------------|-------7--9-----9--7-----|
A|-3-----3--------3--3--3--|-7--7--7--7--7--7--7--7--|-7--10----------------10-|
E|-------------------------|-------------------------|-------------------------|

CHORUS I

G|-------9-----------------|-------9-----------------|-------9-----------------|-------9-----------------|
D|----------------7--9--10-|----------------7--9--10-|----------------7--9--10-|----------------7--9--10-|
A|-7-----------10----------|-7-----------10----------|-7-----------10----------|-7-----------10----------|
E|-------------------------|-------------------------|-------------------------|-------------------------|

G|-------------------------|-------------------------|-------------------------|-------------------------|
D|----------5--------------|-------7--5--------------|----------5--------------|-------7--5--------------|
A|-3-----3--------3--3--3--|-5-----------7--5-----5--|-3-----3--------3--3--3--|-5-----------7--5-----5--|
E|-------------------------|-------------------8-----|-------------------------|-------------------8-----|

G|-------------------------|-------------7-----------|-------------------------|-------------7-----------|
D|-------------------------|-------7--9-----9--7-----|-------------------------|-------7--9-----9--7-----|
A|-7--7--7--7--7--7--7--7--|-7--10----------------10-|-7--7--7--7--7--7--7--7--|-7--10----------------10-|
E|-------------------------|-------------------------|-------------------------|-------------------------|

VERSE II

G|-------------------------|-------------------------|
D|-------------------------|-------------------------|
A|-7--7--7--7--7--7--7--7--|-7--7--7--7--7--7--7--7--|
E|-------------------------|-------------------------|

G|-------------------------|-------------------------|-------------------------|-------------------------|
D|-------------------------|-------------------------|-------------------------|-------------------------|
A|-7--7--7--7--7--7--7--7--|-7--7--7--7--7--7--7--7--|-7--7--7--7--7--7--7--7--|-7--7--7--7--7--7--7--7--|
E|-------------------------|-------------------------|-------------------------|-------------------------|

G|-------------------------|-------------------------|-------------7-----------|
D|----------5--------------|-------------------------|-------7--9-----9--7-----|
A|-3-----3--------3--3--3--|-7--7--7--7--7--7--7--7--|-7--10----------------10-|
E|-------------------------|-------------------------|-------------------------|

REPEAT CHORUS I

BREAK I

G|-------------------------|-------------------------|-------------------------|-------------------------|
D|-------------------------|-------------------------|-------------------------|-------------------------|
A|----------2--3--3--3--2--|----------2--3--3--3--2--|----------2--3--3--3--2--|----------2--3--3--3--2--|
E|-3-----3-----------------|-3-----3-----------------|-3-----3-----------------|-3-----3-----------------|

G|-------------------------|-------------------------|-------------------------|-------------------------|
D|-------------------------|-------------------------|-------------------------|-------------------------|
A|-------------------------|-------------------------|-------------------------|-------------------------|
E|-5-----5-----7--7--7-----|-5-----5-----7-----7-----|-5-----5-----7-----7-----|-5-----5-----7-----7-----|

CHORUS II

G|-------------------------|-------------------------|-------------------------|-------------------------|
D|-------------------------|-------------------------|-------------------------|-------------------------|
A|-7--7--7--7--7--7--7--7--|-7--7--7--7--7--7--7--7--|-7--7--7--7--7--7--7--7--|-7--7--7--7--7--7--7--7--|
E|-------------------------|-------------------------|-------------------------|-------------------------|

G|-------------------------|-------------------------|-------------------------|-------------7-----------|
D|-------------------------|-------------------------|-------------------------|-------7--9-----9--7-----|
A|-3-----3--3-----3--3--3--|-5-----5--5-----5--5--5--|-7--7--7--7--7--7--7--7--|-7--10----------------10-|
E|-------------------------|-------------------------|-------------------------|-------------------------|

G|-------------------------|-------------7-----------|
D|-------------------------|-------7--9-----9--7-----|
A|-7--7--7--7--7--7--7--7--|-7--10----------------10-|
E|-------------------------|-------------------------|

REPEAT VERSE I

REPEAT CHORUS I

BREAK II

G|-------9-----------9-----|-------9-----------9-----|-------9-----------9-----|-------9-----------9-----|
D|-------------------------|-------------------------|-------------------------|-------------------------|
A|-7-----------7-----------|-7-----------7-----------|-7-----------7-----------|-7-----------7-----------|
E|-------------------------|-------------------------|-------------------------|-------------------------|

G|-------9-----------9-----|-------9-----------9-----|-------9-----------9-----|-------9-----------9-----|
D|-------------------------|-------------------------|-------------------------|-------------------------|
A|-7-----------7-----------|-7-----------7-----------|-7-----------7-----------|-7-----------7-----------|
E|-------------------------|-------------------------|-------------------------|-------------------------|

G|-------------------------|-------------------------|-------------------------|-------------------------|
D|-------------------------|-------------------------|-------------------------|-------------------------|
A|-------------------------|-------------------------|-------------------------|-------------------------|
E|-5-----5-----7-----7-----|-5-----5-----7-----7-----|-5-----5-----7-----7-----|-5-----5-----7-----7-----|

REPEAT CHORUS II

BREAK III

G|-------9-----------9-----|-------9-----------9-----|-------9-----------9-----|-------9-----------9-----|
D|-------------------------|-------------------------|-------------------------|-------------------------|
A|-7-----------7-----------|-7-----------7-----------|-7-----------7-----------|-7-----------7-----------|
E|-------------------------|-------------------------|-------------------------|-------------------------|

G|-------9-----------9-----|-------9-----------9-----|-------------------------|-------------------------|
D|-------------------------|-------------------------|-------------------------|-------------------------|
A|-7-----------7-----------|-7-----------7-----------|-7--7--7--7--7--7--7--7--|-7--7--7--7--7--7--7--7--|
E|-------------------------|-------------------------|-------------------------|-------------------------|

CHORUS III

G|-------------------------|-------------------------|-------------------------|-------------------------|
D|-------------------------|-------------------------|-------------------------|-------------------------|
A|-3-----3--3-----3--3--3--|-5-----5--5-----5--5--5--|-7--7--7--7--7--7--7--7--|-7--7--7--7--7--7--7--7--|
E|-------------------------|-------------------------|-------------------------|-------------------------|

G|-------------------------|-------------------------|-------------------------|-------------------------|
D|-------------------------|-------------------------|-------------------------|-------------------------|
A|-3-----3--3-----3--3--3--|-5-----5--5-----5--5--5--|-7--7--7--7--7--7--7--7--|-7--7--7--7--7--7--7--7--|
E|-------------------------|-------------------------|-------------------------|-------------------------|

G|-------------------------|-------------------------|-------------------------|-------------7-----------|
D|-------------------------|-------------------------|-------------------------|-------7--9-----9--7-----|
A|-3-----3--3-----3--3--3--|-5-----5--5-----5--5--5--|-7--7--7--7--7--7--7--7--|-7--10----------------10-|
E|-------------------------|-------------------------|-------------------------|-------------------------|

OUTRO

G|-------------------------|-------------7-----------|
D|-------------------------|-------7--9-----9--7-----|
A|-7--7--7--7--7--7--7--7--|-7--10----------------10-|
E|-------------------------|-------------------------|

(repeat to fade)