The Ruts : Babylon's Burning

VERSE

G|------------------------|------------------------|------------------------|------------------------|
D|------------------------|-2--2--3--3--2--2-------|------------------------|-2--2--------2--2-------|
A|-0--0--2--2--3--3--5--5-|-------------------3--3-|-0--0--2--2--3--3--5--5-|-------3--3--------3--3-|
E|------------------------|------------------------|------------------------|------------------------|

CHORUS

G|------------------------|------------------------|------------------------|------------------------|
D|-------2-----2--3--2----|----------------2-------|------------------------|------------------------|
A|-5--------5-----------3-|-0-----3--0--5-----5--3-|-0--0--2--2--3--3--5--0-|-0--0--2--2--3--3--5----|
E|------------------------|------------------------|------------------------|------------------------|

CHANGE

G|------------------------|------------------------|------------------------|------------------------|
D|------------------------|------------------------|------------------------|------------------------|
A|------------------------|-------------------2--2-|-3--3--3--3--5--5--5--5-|-------0--0--0--0--0--0-|
E|-1--1--1--1--3--3--3--3-|-4--4--4--4--5--5-------|------------------------|------------------------|

ENDING

G|------------------------|------------------------|------------------------|------------------------|
D|------------------------|------------------------|------------------------|-------------2--2--2--2-|
A|------------------------|------------------------|-2--2--2--2--3--3--3--3-|-5--5--5--5-------------|
E|-1--1--1--1--3--3--3--3-|-4--4--4--4--5--5--5--5-|------------------------|------------------------|