Joy Division : These Days

INTRO AND BREAK

G |-7-----5----------------|------------------------|-7-----5----------------|------------------------|
D |----------7--5----------|------------------------|----------7--5----------|------------------------|
A |----------------8---5---|-3----------------------|----------------8---3---|-5----------------------|
E |------------------------|------------------------|------------------------|------------------------|


G |-7-----5----------------|------------------------|-7-----5----------------|------------------------|
D |----------7--5----------|------------------------|----------7--5----------|------------------------|
A |----------------8---5---|-0----------------------|----------------8---3---|-5----------------------|
E |------------------------|------------------------|------------------------|------------------------|

VERSE

G |------------------------|------------------------|------------------------|------------------------|
D |------------------------|------------------------|----5--5--5--5--5--5--5-|----5--5--5--5--5--5--5-|
A |-5--5--5--5--5--5--5--5-|-8--5--5--5--5--5--5--5-|-8----------------------|-8----------------------|
E |------------------------|------------------------|------------------------|------------------------|

VARIATION

G |------------------------|----------11----11-11-11|------------------------|------------------------|
D |-4-----4--4--4--4--4--4-|-9--9--9----------------|-2-----2--2--2--2--2--2-|------------------------|
A |------------------------|------------------------|------------------------|-0--0--0--0-----0--0--0-|
E |------------------------|------------------------|------------------------|------------------------|