Joy Division : She's Lost Control

INTRO

G |-19----19-19-19-19-19-19|-17-19-17-15----15-15-15|-17----17-17-17-17-17-17|-15-17-15-12----12-12-12|
D |-0-----0--0--0--0--0--0-|-0--0--0--0-----0--0--0-|-0-----0--0--0--0--0--0-|-0--0--0--0-----0--0--0-|
A |------------------------|------------------------|------------------------|------------------------|
E |------------------------|------------------------|------------------------|------------------------|

(x2)

VERSE I

G |-19----19-19-19-19-19-19|-17-19-17-15----15-15-15|-17----17-17-17-17-17-17|-15-17-15-12----12-12-12|
D |-0-----0--0--0--0--0--0-|-0--0--0--0-----0--0--0-|-0-----0--0--0--0--0--0-|-0--0--0--0-----0--0--0-|
A |------------------------|------------------------|------------------------|------------------------|
E |------------------------|------------------------|------------------------|------------------------|

(x4)

G |-19----19-19-19-19-19-19|-15----15-17----17-17-17|-19----19-19-19-19-19-19|----12-12-12-12-12-12-12|
D |-0-----0--0--0--0--0--0-|-0-----0--0-----0--0--0-|-0-----0--0--0--0--0--0-|----0--0--0--0--0--0--0-|
A |------------------------|------------------------|------------------------|------------------------|
E |------------------------|------------------------|------------------------|------------------------|

BREAK I

G |-19----19-19-19-19-19-19|-17-19-17-15----15-15-15|-17----17-17-17-17-17-17|-15-17-15-12----12-12-12|
D |-0-----0--0--0--0--0--0-|-0--0--0--0-----0--0--0-|-0-----0--0--0--0--0--0-|-0--0--0--0-----0--0--0-|
A |------------------------|------------------------|------------------------|------------------------|
E |------------------------|------------------------|------------------------|------------------------|

(x2)

VERSE II

G |-19----19-19-19-19-19-19|-17-19-17-15----15-15-15|-17----17-17-17-17-17-17|-15-17-15-12----12-12-12|
D |-0-----0--0--0--0--0--0-|-0--0--0--0-----0--0--0-|-0-----0--0--0--0--0--0-|-0--0--0--0-----0--0--0-|
A |------------------------|------------------------|------------------------|------------------------|
E |------------------------|------------------------|------------------------|------------------------|

(x4)

G |-19----19-19-19-19-19-19|-15----15-17----17-17-17|-19----19-19-19-19-19-19|----12-12-12-12-12-12-12|
D |-0-----0--0--0--0--0--0-|-0-----0--0-----0--0--0-|-0-----0--0--0--0--0--0-|----0--0--0--0--0--0--0-|
A |------------------------|------------------------|------------------------|------------------------|
E |------------------------|------------------------|------------------------|------------------------|

(x2)
BREAK II

G |------------------------|------------------------|------------------------|------------------------|
D |-5--5-----5--7--7-----7-|-8--8-----8--10-10----10|-12-12-12-12-12-12-12-0-|-12-12-12-0--12-12-12-0-|
A |------------------------|------------------------|------------------------|------------------------|
E |------------------------|------------------------|------------------------|------------------------|

G |------------------------|------------------------|------------------------|------------------------|
D |-5--5-----5--7--7-----7-|-8--8-----8--10-10----10|-7--7--7--7--7--7--7--0-|-7--7--7--0--7--7--7--0-|
A |------------------------|------------------------|------------------------|------------------------|
E |------------------------|------------------------|------------------------|------------------------|

(x2)

G |-19----19-19-19-19-19-19|-17-19-17-15----15-15-15|-17----17-17-17-17-17-17|-15-17-15-12----12-12-12|
D |-0-----0--0--0--0--0--0-|-0--0--0--0-----0--0--0-|-0-----0--0--0--0--0--0-|-0--0--0--0-----0--0--0-|
A |------------------------|------------------------|------------------------|------------------------|
E |------------------------|------------------------|------------------------|------------------------|

(x2)

VERSE III

G |-19----19-19-19-19-19-19|-17-19-17-15----15-15-15|-17----17-17-17-17-17-17|-15-17-15-12----12-12-12|
D |-0-----0--0--0--0--0--0-|-0--0--0--0-----0--0--0-|-0-----0--0--0--0--0--0-|-0--0--0--0-----0--0--0-|
A |------------------------|------------------------|------------------------|------------------------|
E |------------------------|------------------------|------------------------|------------------------|

(x4)

G |-19----19-19-19-19-19-19|-15----15-17----17-17-17|-19----19-19-19-19-19-19|----12-12-12-12-12-12-12|
D |-0-----0--0--0--0--0--0-|-0-----0--0-----0--0--0-|-0-----0--0--0--0--0--0-|----0--0--0--0--0--0--0-|
A |------------------------|------------------------|------------------------|------------------------|
E |------------------------|------------------------|------------------------|------------------------|

(x2)

BREAK III

G |------------------------|------------------------|------------------------|------------------------|
D |-5--5-----5--7--7-----7-|-8--8-----8--10-10----10|-12-12-12-12-12-12-12-0-|-12-12-12-0--12-12-12-0-|
A |------------------------|------------------------|------------------------|------------------------|
E |------------------------|------------------------|------------------------|------------------------|

G |------------------------|------------------------|------------------------|------------------------|
D |-5--5-----5--7--7-----7-|-8--8-----8--10-10----10|-7--7--7--7--7--7--7--0-|-7--7--7--0--7--7--7--0-|
A |------------------------|------------------------|------------------------|------------------------|
E |------------------------|------------------------|------------------------|------------------------|

(x2)

G |------------------------|------------------------|------------------------|------------------------|
D |-5--5-----5--7--7-----7-|-8--8-----8--10-10----10|-12-12-12-12-12-12-12-0-|-12-12-12-0--12-12-12-0-|
A |------------------------|------------------------|------------------------|------------------------|
E |------------------------|------------------------|------------------------|------------------------|

G |------------------------|------------------------|------------------------|------------------------|
D |-5--5-----5--7--7-----7-|-8--8-----8--10-10----10|-7----------------------|------------------------|
A |------------------------|------------------------|------------------------|------------------------|
E |------------------------|------------------------|------------------------|------------------------|