Joy Division : No Love Lost

INTRO

G |-0-----------0-----------|-0-----------0-----------|-------------------------|-------------------------|
D |-2-----------2-----------|-2-----------2-----------|-------------------------|-------------------------|
A |-0-----------0-----------|-0-----------0-----------|-0--0--0--0--0--0--0--0--|-0--0--0--0--0--0--0--0--|
E |-0-----------0-----------|-0-----------0-----------|-------------------------|-------------------------|

(x3)

G |-------------------------|-------------------------|-------------------------|-------------------------|
D |-------------------------|-------------------------|-------------------------|-------------------------|
A |-0--0--12-0--0--0--10-0--|-0--0--12-0--0--0--10-0--|-0--0--12-0--0--0--10-0--|-0--0--12-0--0--0--10-0--|
E |-------------------------|-------------------------|-------------------------|-------------------------|

(x6)

G |-------------------------|-------------------------|-------------------------|-------------------------|
D |-------------------------|-------------------------|-------------------------|-------------------------|
A |-0--0--0--0--0--0--0--0--|-0--0--0--0--0--0--0--0--|-0--0--0--0--0--0--0--0--|-0--0--0--0--0--0--0--0--|
E |-------------------------|-------------------------|-------------------------|-------------------------|

G |-------------------------|-------------------------|-------------------------|
D |-------------------------|-------------------------|-------------------------|
A |-0--0--0--0--0--0--0--0--|-0--0--0--0--0--0--0--0--|-0--0--0--0--0--0--0--0--|
E |-------------------------|-------------------------|-------------------------|

(x1)

G |-------------------------|-------------------------|-------------------------|-------------------------|
D |-------------------------|-------------------------|-------------------------|-------------------------|
A |-0--0--12-0--0--0--10-0--|-0--0--12-0--0--0--10-0--|-0--0--12-0--0--0--10-0--|-0--0--12-0--0--0--10-0--|
E |-------------------------|-------------------------|-------------------------|-------------------------|

(x4)

G |-------------------------|-------------------------|-------------------------|
D |-------------------------|-------------------------|-------------------------|
A |-0--0--12-0--0--0--10-0--|-0--0--12-0--0--0--10-0--|-0--0--12-0--0--0--10-0--|
E |-------------------------|-------------------------|-------------------------|

BREAK

G |-------------------------|-------------------------|-------------------------|-------------------------|
D |-------------------------|-------------------------|-------------------------|-------------------------|
A |-10----------------------|-------------------------|-12----------------------|-------------------------|
E |-------------------------|-------------------------|-------------------------|-------------------------|
                                                        \
G |-------------------------|-------------------------|
D |-------------------------|-------------------------|
A |-------------------------|-------------------------|
E |-------------------------|-------------------------|

VERSE

G |-------------------------|-------------------------|-------------------------|-------------------------|
D |-------------------------|-------------------------|-------------------------|-------------------------|
A |-------------------------|-------------------------|-------------------------|-------------------------|
E |-5--5--5--0--3--0--5--0--|-5--5--5--0--3--0--5--0--|-5--5--5--0--3--0--5--0--|-5--5--5--0--3--0--5--0--|

(x9)

DRUM BREAK

G |-------------------------|-------------------------|-------------------------|-------------------------|
D |-------------------------|-------------------------|-------------------------|-------------------------|
A |-------------------------|-------------------------|-------------------------|-------------------------|
E |-5--5--5--0--3--0--5--0--|-------------------------|-------------------------|-------------------------|

VERSE

G |-------------------------|-------------------------|-------------------------|-------------------------|
D |-------------------------|-------------------------|-------------------------|-------------------------|
A |-------------------------|-------------------------|-------------------------|-------------------------|
E |-5--5--5--0--3--0--5--0--|-5--5--5--0--3--0--5--0--|-5--5--5--0--3--0--5--0--|-5--5--5--0--3--0--5--0--|

(x5)