Joy Division : New Dawn Fades

bars 1 to 2 drums only

bars 3 to 42 (lead guitar starts on bar 7, vocals and picked guitar on bar 23)

G |-------------------------------------------------|-------------------------------------------------|
D |-------------------------------------------------|-------------------------------------------------|
A |--7-----7-----7--7-----7-----7--7-----7--7--0----|--5-----5-----5--5-----5-----5--5-----5--5--0----|
E |-------------------------------------------------|-------------------------------------------------|

G |-------------------------------------------------|-------------------------------------------------|
D |-------------------------------------------------|-------------------------------------------------|
A |--3-----3-----3--3-----3-----3--3-----3--3--0----|--0-----0-----0--0-----0-----0--0-----0--0--0----|
E |-------------------------------------------------|-------------------------------------------------|

(x10)

bars 43 to 46

G |-------------------------------------------------|-------------------------------------------------|
D |-------------------------------------------------|-------------------------------------------------|
A |--7-----7-----7--7-----7-----7--7-----7--7--0----|--5-----5-----5--5-----5-----5--5-----5--5--0----|
E |-------------------------------------------------|-------------------------------------------------|

G |-------------------------------------------------|-----------------------12-12-11-11-9--9--7--7----|
D |-------------------------------------------------|-----------------------0--0--0--0--0--0--0--0----|
A |--3-----3-----3--3-----3-----3--3-----3--3--0----|--0-----0-----0--0-------------------------------|
E |-------------------------------------------------|-------------------------------------------------|

bars 47 to 54 (guitar chords starts on 47)

G |-------------------------------------------------|-------------------------------------------------|
D |-------------------------------------------------|-------------------------------------------------|
A |--7-----7-----7--7-----7-----7--7-----7--7--0----|--5-----5-----5--5-----5-----5--5-----5--5--0----|
E |-------------------------------------------------|-------------------------------------------------|

G |-------------------------------------------------|-------------------------------------------------|
D |-------------------------------------------------|-------------------------------------------------|
A |--3-----3-----3--3-----3-----3--3-----3--3--0----|--0-----0-----0--0-----0-----0--0-----0--0--0----|
E |-------------------------------------------------|-------------------------------------------------|

(x2)

bars 55 to 58 (guitar chords double up on 55)

G |-------------------------------------------------|-------------------------------------------------|
D |-------------------------------------------------|-------------------------------------------------|
A |--7-----7-----7--7-----7-----7--7-----7--7--0----|--5-----5-----5--5-----5-----5--5-----5--5--0----|
E |-------------------------------------------------|-------------------------------------------------|

G |-------------------------------------------------|-----------------------12-12-11-11-9--9--7--7----|
D |-------------------------------------------------|-----------------------0--0--0--0--0--0--0--0----|
A |--3-----3-----3--3-----3-----3--3-----3--3--0----|--0-----0-----0--0-------------------------------|
E |-------------------------------------------------|-------------------------------------------------|
bars 59 to 70 (lead guitar line starts on 59)

G |-------------------------------------------------|-------------------------------------------------|
D |-------------------------------------------------|-------------------------------------------------|
A |--7-----7-----7--7-----7-----7--7-----7--7--0----|--5-----5-----5--5-----5-----5--5-----5--5--0----|
E |-------------------------------------------------|-------------------------------------------------|

G |-------------------------------------------------|-------------------------------------------------|
D |-------------------------------------------------|-------------------------------------------------|
A |--3-----3-----3--3-----3-----3--3-----3--3--0----|--0-----0-----0--0-----0-----0--0-----0--0--0----|
E |-------------------------------------------------|-------------------------------------------------|

(x3)

bars 71 to 78 (lead guitar solo starts on 75)

G |-------------------------------------------------|-------------------------------------------------|
D |-------------------------------------------------|-------------------------------------------------|
A |--7-----7-----7--7-----7-----7--7-----7--7--0----|--5-----5-----5--5-----5-----5--5-----5--5--0----|
E |-------------------------------------------------|-------------------------------------------------|

G |-------------------------------------------------|-----------------------12-12-11-11-9--9--7--7----|
D |-------------------------------------------------|-----------------------0--0--0--0--0--0--0--0----|
A |--3-----3-----3--3-----3-----3--3-----3--3--0----|--0-----0-----0--0-------------------------------|
E |-------------------------------------------------|-------------------------------------------------|

(x2)

bars 79 to 86 (lead guitar ends on 83)

G |-------------------------------------------------|-------------------------------------------------|
D |-------------------------------------------------|-------------------------------------------------|
A |--7--------------------7--------------5----------|--5-----------5--5--5--------5--------5--5--0----|
E |-------------------------------------------------|-------------------------------------------------|

G |-------------------------------------------------|-----------------------12-12-11-11-9--9--7--7----|
D |-------------------------------------------------|-----------------------0--0--0--0--0--0--0--0----|
A |--3-----------3--3--3--------3--3-----3--3-------|--0----------------------------------------------|
E |-------------------------------------------------|-------------------------------------------------|


G |--12-12-11-11-9--9--7--7--12-12-11-11-9--9--7--7-|--12-12-11-11-9--9--7--7--12-12-11-11-9--9--7--7-|
D |--0--0--0--0--0--0--0--0--0--0--0--0--0--0--0--0-|--0--0--0--0--0--0--0--0--0--0--0--0--0--0--0--0-|
A |-------------------------------------------------|-------------------------------------------------|
E |-------------------------------------------------|-------------------------------------------------|

G |--12-12-11-11-9--9--7--7--12-12-11-11-9--9--7--7-|--12-12-11-11-9--9--7--7--7----------------------|
D |--0--0--0--0--0--0--0--0--0--0--0--0--0--0--0--0-|--0--0--0--0--0--0--0--0--0----------------------|
A |-------------------------------------------------|-------------------------------------------------|
E |-------------------------------------------------|-------------------------------------------------|