Joy Division : Love Will Tear Us Apart

INTRO

G |-9-----9--9--9--9--9--9--|-9--9--9--9--9--9--9--9--|-9--9--9--9--9--9--9--9--|-9--9--9--9--9--9--9--9--|
D |-7-----7--7--7--7--7--7--|-7--7--7--7--7--7--7--7--|-7--7--7--7--7--7--7--7--|-7--7--7--7--7--7--7--7--|
A |-------------------------|-------------------------|-------------------------|-------------------------|
E |-------------------------|-------------------------|-------------------------|-------------------------|

G |-9--9--9--9--9--9--9--9--|-9--9--9--9--9--9--9--9--|-9--9--9--9--9--9--9--9--|-9--9--9--9--9--9--9--7--|
D |-7--7--7--7--7--7--7--7--|-7--7--7--7--7--7--7--7--|-7--7--7--7--7--7--7--7--|-7--7--7--7--7--7--7--0--|
A |-------------------------|-------------------------|-------------------------|-------------------------|
E |-------------------------|-------------------------|-------------------------|-------------------------|

(x1)

G |-9-----9--9-----9--9--9--|-11----12-11-------9--7--|-0----0--0--0--0--0--7---|----------------------7--|
D |-0-----0--0-----0--0--0--|-0-----0--0--------0--0--|-9----9--9--9--9--9--0---|-7--7--7--7--7--7--7--0--|
A |-------------------------|-------------------------|-------------------------|-0--0--0--0--0--0--0-----|
E |-------------------------|-------------------------|-------------------------|-------------------------|

(x2)

VERSE

G |-9-----9--9-----9--9--9--|-11----12-11-------9--7--|-0----0--0--0--0--0--7---|----------------------7--|
D |-0-----0--0-----0--0--0--|-0-----0--0--------0--0--|-9----9--9--9--9--9--0---|-7--7--7--7--7--7--7--0--|
A |-------------------------|-------------------------|-------------------------|-0--0--0--0--0--0--0-----|
E |-------------------------|-------------------------|-------------------------|-------------------------|

(x3)

CHORUS

G |-9-----9--9-----9--9--9--|-11----12-11-------9--7--|-0----0--0--0--0--0--7---|----------------------7--|
D |-0-----0--0-----0--0--0--|-0-----0--0--------0--0--|-9----9--9--9--9--9--0---|-7--7--7--7--7--7--7--0--|
A |-------------------------|-------------------------|-------------------------|-0--0--0--0--0--0--0-----|
E |-------------------------|-------------------------|-------------------------|-------------------------|

(x2)

BRIDGE

G |-9-----9--9-----9--9--9--|-11----12-11-------9--7--|-0----0--0--0--0--0--7---|----------------------7--|
D |-0-----0--0-----0--0--0--|-0-----0--0--------0--0--|-9----9--9--9--9--9--0---|-7--7--7--7--7--7--7--0--|
A |-------------------------|-------------------------|-------------------------|-0--0--0--0--0--0--0-----|
E |-------------------------|-------------------------|-------------------------|-------------------------|

REPEAT VERSE

REPEAT CHORUS

BREAK

G |-9-----9--9--9--9--9--9--|-9-----9--9--9--9--9--9--|-9-----9--9--9--9--9--9--|-9-----9--9--9--9--9--9--|
D |-7-----7--7--7--7--7--7--|-7-----7--7--7--7--7--7--|-7-----7--7--7--7--7--7--|-7-----7--7--7--7--7--7--|
A |-------------------------|-------------------------|-------------------------|-------------------------|
E |-------------------------|-------------------------|-------------------------|-------------------------|

(x2)

REPEAT CHORUS
REPEAT VERSE

REPEAT CHORUS TWICE

BREAK

G |-9-----9--9--9--9--9--9--|-9-----9--9--9--9--9--9--|-9-----9--9--9--9--9--9--|-9-----9--9--9--9--9--9--|
D |-7-----7--7--7--7--7--7--|-7-----7--7--7--7--7--7--|-7-----7--7--7--7--7--7--|-7-----7--7--7--7--7--7--|
A |-------------------------|-------------------------|-------------------------|-------------------------|
E |-------------------------|-------------------------|-------------------------|-------------------------|

OUTRO

G |-7-----7--7--7--7--7--7--|-7-----7--7--7--7--7--7--|-7-----7--7--7--7--7--7--|-------------------------|
D |-0-----0--0--0--0--0--0--|-0-----0--0--0--0--0--0--|-0-----0--0--0--0--0--0--|-7-----7--7--7--7--7--7--|
A |-------------------------|-------------------------|-------------------------|-0-----0--0--0--0--0--0--|
E |-------------------------|-------------------------|-------------------------|-------------------------|

(x4)