Joy Division : Interzone

INTRO

G |-------------------------|-------------------------|-------------------------|-------------------------|
D |-------------------------|-------------------------|-------------------------|-------------------------|
A |----0--0--0--0--0--0--0--|-0--0--0--1--3-----5--3--|----0--0--0--0--0--0--0--|-0--0--0--1--3-----5--3--|
E |-------------------------|-------------------------|-------------------------|-------------------------|
                                        /            \                                      /
(x3)

VERSE

G |-------------------------|-------------------------|-------------------------|-------------------------|
D |-------------------------|-------------------------|-------------------------|-------------------------|
A |----0--0--0--0--0--0--0--|-0--0--0--1--3-----5--3--|----0--0--0--0--0--0--0--|-0--0--0--1--3-----5--3--|
E |-------------------------|-------------------------|-------------------------|-------------------------|
                                        /            \                                      /
(x3)

G |-------------------------|-------------------------|
D |-------------------------|-------------------------|
A |----0--0--0--0--0--0--0--|-------------------------|
E |-------------------------|-------------------------|

BREAK

G |-------------------------|-------------------------|-------------------------|-------------------------|
D |-------------------------|-------------------------|-------------------------|-5-----------------------|
A |----0--0--0--0--0--0--0--|-0--5--7--5----5---3-----|----0--0--0--0--0--0--0--|-----------1--3-----5--3-|
E |-------------------------|-------------------------|-------------------------|-------------------------|
                                  /                                                          /
VERSE

G |-------------------------|-------------------------|-------------------------|-------------------------|
D |-------------------------|-------------------------|-------------------------|-------------------------|
A |----0--0--0--0--0--0--0--|-0--0--0--1--3-----5--3--|----0--0--0--0--0--0--0--|-0--0--0--1--3-----5--3--|
E |-------------------------|-------------------------|-------------------------|-------------------------|
                                        /            \                                      /
(x3)

G |-------------------------|
D |-------------------------|
A |----0--0--0--0--0--0--0--|
E |-------------------------|

BRIDGE

G |-------------------------|-------------------------|-------------------------|-------------------------|
D |-------------------------|-------------------------|-------------------------|-------------------------|
A |-0--0--0--0--0--0--0--0--|-0--0--0--0--0--0--0--0--|-0--0--0--0--0--0--0--0--|-0--0--0--0--0--0--0--0--|
E |-------------------------|-------------------------|-------------------------|-------------------------|

G |-------------------------|-------------------------|-------------------------|-------------------------|
D |-------------------------|-------------------------|-------------------------|-------------------------|
A |-0--0--0--0--0--0--0--0--|-0--0--0--0--0--0--0--0--|-0--0--0--0--0--0--0--0--|-0--0--0--1--3-----5--3--|
E |-------------------------|-------------------------|-------------------------|-------------------------|
BREAK

G |-------------------------|-------------------------|-------------------------|-------------------------|
D |-------------------------|-------------------------|-------------------------|-------------------------|
A |----0--0--0--0--0--0--0--|-0--0--0--1--3-----5--3--|----0--0--0--0--0--0--0--|-0--0--0--1--3-----5--3--|
E |-------------------------|-------------------------|-------------------------|-------------------------|
                                        /            \                                      /
(x3)

VERSE

G |-------------------------|-------------------------|-------------------------|-------------------------|
D |-------------------------|-------------------------|-------------------------|-------------------------|
A |----0--0--0--0--0--0--0--|-0--0--0--1--3-----5--3--|----0--0--0--0--0--0--0--|-0--0--0--1--3-----5--3--|
E |-------------------------|-------------------------|-------------------------|-------------------------|
                                        /            \                                      /
(x3)

G |-------------------------|-------------------------|
D |-------------------------|-------------------------|
A |----0--0--0--0--0--0--0--|-------------------------|
E |-------------------------|-------------------------|

END

G |-------------------------|-------------------------|-------------------------|-------------------------|
D |-------------------------|-------------------------|-------------------------|-------------------------|
A |----0--0--0--0--0--0--0--|-0--5--7--5----5---3-----|----0--0--0--0--0--0--0--|-------------------------|
E |-------------------------|-------------------------|-------------------------|-------------------------|
                                  /