Joy Division : Disorder

INTRO

G |-8-----8--8--8--8--8--8--|-------------------------|-------------------------|-------------------------|
D |-------------------------|-5-----5--5-----5--5--5--|-------------------------|-5-----5--5-----5--5--5--|
A |-------------------------|-------------------------|-------------------------|-------------------------|
E |-------------------------|-------------------------|-6-----6--6--6--6--6--6--|-------------------------|

(x4)

VERSE

G |-8-----8--8--8--8--8--8--|-------------------------|-------------------------|-------------------------|
D |-------------------------|-5-----5--5-----5--5--5--|-------------------------|-5-----5--5-----5--5--5--|
A |-------------------------|-------------------------|-------------------------|-------------------------|
E |-------------------------|-------------------------|-6-----6--6--6--6--6--6--|-------------------------|

(x4)

CHORUS I

G |-8-----8--8--8--8--8--8--|-7--8--7-----------------|-------------------------|-------------------------|
D |-------------------------|----------5-----5--5--5--|-------------------------|-5-----5--5-----5--5--5--|
A |-------------------------|-------------------------|-------------------------|-------------------------|
E |-------------------------|-------------------------|-6-----6--6--6--6--6--6--|-------------------------|

(x1)

G |-8-----8--8--8--8--8--8--|-7--8--7-----------------|-------------------------|-------------------------|
D |-------------------------|----------5-----5--5--5--|-------------------------|----------------5--5--5--|
A |-------------------------|-------------------------|-------------------------|-5--3--------------------|
E |-------------------------|-------------------------|-6-----6--6--6--6--6--6--|-------6--0--------------|

(x3)

G |-8-----8--8--8--8--8--8--|-------------------------|-------------------------|-------------------------|
D |-------------------------|-5-----5--5-----5--5--5--|-------------------------|-5-----5--5-----5--5--5--|
A |-------------------------|-------------------------|-------------------------|-------------------------|
E |-------------------------|-------------------------|-6-----6--6--6--6--6--6--|-------------------------|

(x2)

REPEAT VERSE

CHORUS II

G |-8-----8--8--8--8--8--8--|-7--8--7-----------------|-------------------------|-------------------------|
D |-------------------------|----------5-----5--5--5--|-------------------------|-5-----5--5-----5--5--5--|
A |-------------------------|-------------------------|-------------------------|-------------------------|
E |-------------------------|-------------------------|-6-----6--6--6--6--6--6--|-------------------------|

(x1)

G |-8-----8--8--8--8--8--8--|-7--8--7-----------------|-------------------------|-------------------------|
D |-------------------------|----------5-----5--5--5--|-------------------------|----------------5--5--5--|
A |-------------------------|-------------------------|-------------------------|-5--3--------------------|
E |-------------------------|-------------------------|-6-----6--6--6--6--6--6--|-------6--0--------------|

(x4)

G |-8-----8--8--8--8--8--8--|-------------------------|-------------------------|-------------------------|
D |-------------------------|-5-----5--5-----5--5--5--|-------------------------|-5-----5--5-----5--5--5--|
A |-------------------------|-------------------------|-------------------------|-------------------------|
E |-------------------------|-------------------------|-6-----6--6--6--6--6--6--|-------------------------|

(x1)

REPEAT VERSE

OUTRO

G |-8-----8--8--8--8--8--8--|-------------------------|-------------------------|-------------------------|
D |-------------------------|-5-----5--5-----5--5--5--|-------------------------|-5-----5--5-----5--5--5--|
A |-------------------------|-------------------------|-------------------------|-------------------------|
E |-------------------------|-------------------------|-6-----6--6--6--6--6--6--|-------------------------|

(x2)

G |-------------------------|-------------------------|-------------------------|-------------------------|
D |-------------------------|-------------------------|-------------------------|-------------------------|
A |-------------------------|-------------------------|-------------------------|-------------------------|
E |-1--1--1--1--1--1--1--1--|-1--1--1--1--1--1--1--1--|-1--2--3--4--5--6--7--8--|-9-----12-----9-----12---|
                                                         /  /  /  /  /  /  /         /            /
G |-------------------------|-------------------------|-------------------------|-------------------------|
D |-------------------------|-------------------------|-------------------------|-------------------------|
A |-------------------------|-------------------------|-------------------------|-------------------------|
E |-9--12-12-12----12-12-12-|-9-----12-----9-----12---|-9--12-12-12----12-12-12-|-9-----12-----9-----12---|
     /                           /            /          /                           /            /
G |-------------------------|-------------------------|-------------------------|-------------------------|
D |-------------------------|-------------------------|-------------------------|-------------------------|
A |-------------------------|-------------------------|-------------------------|-------------------------|
E |-9--12-12-12----12-12-12-|-9-----12-----9-----12---|-9--12-12-12----12-12-12-|-9-----------------------|
     /                           /            /          /