Joy Division : Digital

BASS INTRO

G |------------------------|------------------------|------------------------|------------------------|
D |------------------------|------------------------|------------------------|------------------------|
A |-5-----4--------0--0--4-|-5-----4--5-----4--5--4-|-5-----4--------0--0--4-|-5-----4--5-----4--5--4-|
E |------------------------|------------------------|------------------------|------------------------|

INTRO

G |------------------------|------------------------|------------------------|------------------------|
D |------------------------|------------------------|------------------------|----------------7--6--6-|
A |-5-----4--------0--0--4-|-5-----4--5-----4--0--4-|-5-----4--------0--0--4-|-5-----4--5-------------|
E |------------------------|------------------------|------------------------|------------------------|

G |------------------------|------------------------|------------------------|------------------------|
D |------------------------|------------------------|------------------------|------------------------|
A |-5-----4--------0--0--4-|-5-----4--5-----4--0--4-|-5-----4--------0--0--4-|-5-----4--5-----4--0--4-|
E |------------------------|------------------------|------------------------|------------------------|

G |------------------------|------------------------|------------------------|------------------------|
D |------------------------|------------------------|------------------------|------------------------|
A |-5-----4--------0--0--4-|-5-----4--5-----4--0--4-|-5-----4--------0--0--4-|-5-----4--5-----4--0--4-|
E |------------------------|------------------------|------------------------|------------------------|

G |------------------------|------------------------|------------------------|------------------------|
D |------------------------|----------------7--6--6-|------------------------|----------------6--7--7-|
A |-5-----4--------0--0--4-|-5-----4--5-------------|-5-----4--------0--0--4-|-5-----4--5-------------|
E |------------------------|------------------------|------------------------|------------------------|

VERSE I

G |------------------------|------------------------|------------------------|------------------------|
D |------------------------|----------------7--7--7-|------------------------|----------------6--7--7-|
A |-5-----4--------0--0--4-|-5-----4--5-------------|-5-----4--------0--0--4-|-5-----4--5-------------|
E |------------------------|------------------------|------------------------|------------------------|

G |------------------------|------------------------|------------------------|------------------------|
D |------------------------|------------------------|------------------------|------------------------|
A |-5-----4--------0--0--4-|-5-----4--5-----4--5--4-|-5-----4--------0--0--4-|-5-----4--5-----4--5--4-|
E |------------------------|------------------------|------------------------|------------------------|

G |------------------------|------------------------|------------------------|------------------------|
D |------------------------|----------------7--6--6-|------------------------|----------------7--6--6-|
A |-5-----4--------0--0--4-|-5-----4--5-------------|-5-----4--------0--0--4-|-5-----4--5-------------|
E |------------------------|------------------------|------------------------|------------------------|

CHORUS I

G |------------------------|------------------------|------------------------|------------------------|
D |------------------------|------------------------|------------------------|------------------------|
A |-5-----4--------0--0--4-|-5-----4-----0--0--0--4-|-5-----4--------0--0--4-|-5-----4-----0--0--0--4-|
E |------------------------|------------------------|------------------------|------------------------|

G |------------------------|------------------------|------------------------|------------------------|
D |------------------------|------------------------|------------------------|------------------------|
A |-5-----4--------0--0--4-|-5-----4-----0--0--0--4-|-5-----4--------0--0--4-|-5-----4-----0--0--0--4-|
E |------------------------|------------------------|------------------------|------------------------|
G |------------------------|------------------------|------------------------|------------------------|
D |------------------------|------------------------|------------------------|------------------------|
A |-5-----4---5------------|-5-----4--------0--0--4-|-5-----4-----0--0--0--4-|-5-----4--------0--0--4-|
E |------------------------|------------------------|------------------------|------------------------|

G |------------------------|
D |------------------------|
A |-5-----4---5------------|
E |------------------------|

BREAK

G |------------------------|------------------------|------------------------|------------------------|
D |------------------------|----------------7--6--6-|------------------------|----------------6--7--7-|
A |-5-----4--------0--0--4-|-5-----4--5-------------|-5-----4--------0--0--4-|-5-----4--5-------------|
E |------------------------|------------------------|------------------------|------------------------|

G |------------------------|------------------------|------------------------|------------------------|
D |------------------------|----------------7--6--6-|------------------------|------------------------|
A |-5-----4--------0--0--4-|-5-----4--5-------------|-5-----4-----0--0--0--4-|-5-----4--5-----4--0--4-|
E |------------------------|------------------------|------------------------|------------------------|

G |------------------------|------------------------|------------------------|------------------------|
D |------------------------|------------------------|------------------------|------------------------|
A |-5-----4--------0--0--4-|-5-----4--5-----4--0--4-|-5-----4--------0--0--4-|-5-----4--5-----4--0--4-|
E |------------------------|------------------------|------------------------|------------------------|

G |------------------------|------------------------|
D |------------------------|----------------7--7--7-|
A |-5-----4--------0--0--4-|-5-----4--5-------------|
E |------------------------|------------------------|

VERSE II

G |------------------------|------------------------|------------------------|------------------------|
D |------------------------|----------------7--7--7-|------------------------|----------------7--6--6-|
A |-5-----4--------0--0--4-|-5-----4--5-------------|-5-----4--------0--0--4-|-5-----4--5-------------|
E |------------------------|------------------------|------------------------|------------------------|

G |------------------------|------------------------|------------------------|------------------------|
D |------------------------|----------------7--6--6-|------------------------|----------------7--6--6-|
A |-5-----4--------0--0--4-|-5-----4--5-------------|-5-----4--------0--0--4-|-5-----4--5-------------|
E |------------------------|------------------------|------------------------|------------------------|

G |------------------------|------------------------|------------------------|------------------------|
D |------------------------|----------------7--6--6-|------------------------|----------------7--6--6-|
A |-5-----4--------0--0--4-|-5-----4--5-------------|-5-----4--------0--0--4-|-5-----4--5-------------|
E |------------------------|------------------------|------------------------|------------------------|

CHORUS II

G |------------------------|------------------------|------------------------|
D |------------------------|------------------------|------------------------|
A |-5-----4-----0--0--0--4-|-5-----4-----0--0--0--4-|-5-----4-----0--0--0--4-|
E |------------------------|------------------------|------------------------|

G |------------------------|------------------------|
D |------------------------|----------------7--6--6-|
A |-5-----4--------0--0--4-|-5-----4----------------|
E |------------------------|------------------------|
BREAK II

G |------------------------|------------------------|------------------------|------------------------|
D |------------------------|------------------------|------------------------|------------------------|
A |-5-----4--------0--0--4-|-5-----4--5-----4--5--4-|-5-----4--------0--0--4-|-5-----4--5-----4--0--4-|
E |------------------------|------------------------|------------------------|------------------------|

G |------------------------|------------------------|------------------------|------------------------|
D |------------------------|------------------------|------------------------|------------------------|
A |-5-----4--------0--0--4-|-5-----4--5-----4--5--4-|-5-----4--------0--0--4-|-5-----4--5-----4--0--4-|
E |------------------------|------------------------|------------------------|------------------------|

G |------------------------|------------------------|------------------------|------------------------|
D |------------------------|------------------------|------------------------|------------------------|
A |-5-----4--------0--0--4-|-5-----4--5-----4--5--4-|-5-----4--------0--0--4-|-5-----4--5-----4--0--4-|
E |------------------------|------------------------|------------------------|------------------------|

G |------------------------|------------------------|------------------------|------------------------|
D |------------------------|------------------------|------------------------|------------------------|
A |-4--0--5----5------5--0-|-4--0--5----5------5--0-|-4--0--5----5------5--0-|-4--0--5----5------5--0-|
E |------------------------|------------------------|------------------------|------------------------|

G |------------------------|------------------------|
D |------------------------|------------------------|
A |-4--0--5--0--4--0--5--0-|-4--0--5----5------5--0-|
E |------------------------|------------------------|

VERSE III

G |------------------------|------------------------|------------------------|------------------------|
D |------------------------|------------------------|------------------------|----------------7--6--6-|
A |-5-----4--------0--0--4-|-5-----4--5-----4--5--4-|-5-----4--------0--0--4-|-5-----4--5-------------|
E |------------------------|------------------------|------------------------|------------------------|

G |------------------------|------------------------|------------------------|------------------------|
D |------------------------|----------------7--7--7-|------------------------|----------------7--7--7-|
A |-5-----4--------0--0--4-|-5-----4--5-------------|-5-----4--------0--0--4-|-5-----4--5-------------|
E |------------------------|------------------------|------------------------|------------------------|

G |------------------------|------------------------|------------------------|------------------------|
D |------------------------|------------------------|------------------------|------------------------|
A |-5-----4--------0--0--4-|-5-----4--5-----4--5--4-|-5-----4--------0--0--4-|-5-----4--5-----4--5--4-|
E |------------------------|------------------------|------------------------|------------------------|

G |------------------------|------------------------|------------------------|------------------------|
D |------------------------|------------------------|------------------------|----------------6--7--7-|
A |-5-----4--------0--0--4-|-5-----4--5-----4--5--4-|-5-----4--------0--0--4-|-5-----4--5-------------|
E |------------------------|------------------------|------------------------|------------------------|

G |------------------------|------------------------|
D |------------------------|------------------------|
A |-5-----4--------0--0--4-|-5-----4--5-----4--5--4-|
E |------------------------|------------------------|
ENDING

G |------------------------|------------------------|------------------------|------------------------|
D |------------------------|----------------6--7--7-|------------------------|------------------------|
A |-5-----4--------0--0--4-|-5-----4--5-------------|-5-----4--------0--0--4-|-5-----4--5-----4--0--4-|
E |------------------------|------------------------|------------------------|------------------------|

G |------------------------|------------------------|
D |------------------------|------------------------|
A |-5-----4--------0--0--4-|-5----------------------|
E |------------------------|------------------------|