Joy Division : Dead Souls

VERSE

G |-------------------3----|------------------------|-------------------3--5-|------------------------|
D |-5--5--5--5--5--5-----5-|-3--3--3--3--3--3--3--3-|-5--5--5--5--5--5-------|-3--3--3--3--3--3--3--3-|
A |------------------------|------------------------|------------------------|------------------------|
E |------------------------|------------------------|------------------------|------------------------|

(x2)

G |-------------------3--5-|------------------------|-------------------3----|------------------------|
D |-5--5--5--5--5--5-------|-3--3--3--3--3--3--3--3-|-5--5--5--5--5--5-----0-|-3--3--3--3--3--3--3--3-|
A |------------------------|------------------------|------------------------|------------------------|
E |------------------------|------------------------|------------------------|------------------------|

(x2)

G |-------------------3----|------------------------|-------------------3--5-|------------------------|
D |-5--5--5--5--5--5-----5-|-3--3--3--3--3--3--3--3-|-5--5--5--5--5--5-------|-3--3--3--3--3--3--3--3-|
A |------------------------|------------------------|------------------------|------------------------|
E |------------------------|------------------------|------------------------|------------------------|

D |-------------------3----|------------------------|-------------------3--5-|-------------------5--5-|
A |-5--5--5--5--5--5-----5-|-3--3--3--3--3--3--3--3-|-5--5--5--5--5--5-------|-3--3--3--3--3--3-------|
G |------------------------|------------------------|------------------------|------------------------|
E |------------------------|------------------------|------------------------|------------------------|

CHORUS

G |-10--10-10-10--8---8-8--|------------------------|-10--10-10-10--8---8-8--|------------------------|
D |-----------------------8|-10--10-10-10--8--------|-----------------------8|-10--10-10-10--8--------|
A |------------------------|-------------------10-8-|------------------------|-------------------10-8-|
E |------------------------|------------------------|------------------------|------------------------|

G |-10--10-10-10--8---8-8--|------------------------|-10--10-10-10--8-8-8--8-8-8---|--------------------------|
D |-----------------------8|-10--10-10-10--8--------|-----------------------------8|-10--10--8--8--6--6--5----|
A |------------------------|-------------------10-8-|------------------------------|--------------------------|
E |------------------------|------------------------|------------------------------|--------------------------|

REPEAT VERSE AND CHORUS

VERSE

G |-------------------3----|------------------------|-------------------3--5-|------------------------|
D |-5--5--5--5--5--5-----5-|-3--3--3--3--3--3--3--3-|-5--5--5--5--5--5-------|-3--3--3--3--3--3--3--3-|
A |------------------------|------------------------|------------------------|------------------------|
E |------------------------|------------------------|------------------------|------------------------|

D |-------------------3----|------------------------|-------------------3--5-|-------------------5--5-|
A |-5--5--5--5--5--5-----5-|-3--3--3--3--3--3--3--3-|-5--5--5--5--5--5-------|-3--3--3--3--3--3-------|
G |------------------------|------------------------|------------------------|------------------------|
E |------------------------|------------------------|------------------------|------------------------|

REPEAT CHORUS
VERSE

G |-------------------3----|------------------------|-------------------3--5-|------------------------|
D |-5--5--5--5--5--5-----5-|-3--3--3--3--3--3--3--3-|-5--5--5--5--5--5-------|-3--3--3--3--3--3--3--3-|
A |------------------------|------------------------|------------------------|------------------------|
E |------------------------|------------------------|------------------------|------------------------|

G |-------------------3----|------------------------|-------------------3--5-|------------------------|
D |-5--5--5--5--5--5-----5-|-3--3--3--3--3--3--3--3-|-5--5--5--5--5--5-------|-3--3--3--3--3--3--3--3-|
A |------------------------|------------------------|------------------------|------------------------|
E |------------------------|------------------------|------------------------|------------------------|

D |-------------------3----|------------------------|-------------------3--5-|-------------------5--5-|
A |-5--5--5--5--5--5-----5-|-3--3--3--3--3--3--3--3-|-5--5--5--5--5--5-------|-3--3--3--3--3--3-------|
G |------------------------|------------------------|------------------------|------------------------|
E |------------------------|------------------------|------------------------|------------------------|

REPEAT CHORUS

BRIDGE

G |-0--0--0--0--0--0--0--0-|-0--0--0--0--0--0--0--0-|-0--0--0--0--0--0--0--0-|-0--0--0--0--3--5--5--3-|
D |------------------------|------------------------|------------------------|------------------------|
A |------------------------|------------------------|------------------------|------------------------|
E |------------------------|------------------------|------------------------|------------------------|

(x4 note rhythm and variations)

REPEAT CHORUS

OUTRO

G |-10--10-10-10--10-10-10--10-10-10--12-12--|-12--13-13-13--12-12-12--10-10-10-----8---|
D |------------------------------------------|------------------------------------------|
A |------------------------------------------|------------------------------------------|
E |------------------------------------------|------------------------------------------|

G |-8---8--8--8---8--8--8---8--8--8---10-10--|-10--13-13-13--12-12-12--10-10-10-----8---|
D |------------------------------------------|------------------------------------------|
A |------------------------------------------|------------------------------------------|
E |------------------------------------------|------------------------------------------|

(x2)

G |-10--10-10-10--10-10-10--10-10-10--10-10--|-10--10-10-10--10-10-10--10-10-10--10-10--|
D |------------------------------------------|------------------------------------------|
A |------------------------------------------|------------------------------------------|
E |------------------------------------------|------------------------------------------|

(x3)

G |-10--10-10-10--10-10-10--10-10-10--10-10--|-10--10-10-10--10-10-10--10-10-10---------|
D |------------------------------------------|------------------------------------------|
A |------------------------------------------|------------------------------------------|
E |------------------------------------------|------------------------------------------|