Joy Division : Day Of The Lords

INTRO

G |-------------------------|-------------------------|-------------------------|-------------------------|
D |-------------------------|-------------------------|-------------------------|-------------------------|
A |-------------------------|-------------------------|-------------------------|-------------------------|
E |-0--------0--------0--0--|-2--------2-----2--2--2--|-3--------3--------3--3--|-5--------5-----5--5--5--|

G |-------------------------|-------------------------|-------------------------|-------------------------|
D |-------------------------|-------------------------|-------------------------|-------------------------|
A |-------------------------|-------------------------|-------------------------|-------------------------|
E |-0--------0-----0--0--0--|-2--------2-----2--2--2--|-3-----3--3--3-----3--3--|-5-----5--5--5--5--5--5--|

VERSE

G |-------------------------|-------------------------|-------------------------|-------------------------|
D |-------------------------|-------------------------|-------------------------|-------------------------|
A |-------------------------|-------------------------|-------------------------|-------------------------|
E |-0-----------0-----0--0--|-0--0--0--0--0--0--0--0--|-3--3-----3--3--------3--|-3-----3--3--3--3--2--2--|

G |-------------------------|-------------------------|-------------------------|-------------------------|
D |-------------------------|-------------------------|-------------------------|-------------------------|
A |-------------------------|-------------------------|-------------------------|-------------------------|
E |-0-----0--0--0-----0--0--|-0--0--0--0--0--0--0--0--|-3--3-----3--3--------3--|-3-----3--3--3--3--2--2--|

(x1)

G |-------------------------|-------------------------|-------------------------|-------------------------|
D |-------------------------|-------------------------|-------------------------|-------------------------|
A |-------------------------|-------------------------|-------------------------|-------------------------|
E |-0-----0--0--0-----0--0--|-0--0--0--0--0--0--0--0--|-3--3-----3--3--------3--|-3-----3--3--3--3--2--2--|

(x2)

CHORUS

G |-------------------------|-------------------------|-------------------------|-------------------------|
D |-------------------------|-------------------------|-------------------------|-------------------------|
A |-------------------------|-------------------------|-5-----5--5--5--5--5--5--|-5--5--5--5--3--3--3--3--|
E |-0-----0--0--0-----0--0--|-0--0--0--0--0--0--0--0--|-------------------------|-------------------------|

(x2)

REPEAT VERSE

REPEAT CHORUS

BREAK

G |-------------------------|-------------------------|
D |-------------------------|-------------------------|
A |-------------------------|-------------------------|
E |-0-----0--0--0-----0--0--|-0--------0--0--0--0--0--|

(x1)

G |-------------------------|-------------------------|-------------------------|-------------------------|
D |-------------------------|-------------------------|-------------------------|-------------------------|
A |-------------------------|-------------------------|-------------------------|-------------------------|
E |-0--------0--0-----0--0--|-0-----0--0--0--0--0--0--|-2--------2--2-----2--2--|-2-----2--2--2--2--2--2--|

G |-------------------------|-------------------------|-------------------------|-------------------------|
D |-------------------------|-------------------------|-------------------------|-------------------------|
A |-------------------------|-------------------------|-------------------------|-------------------------|
E |-3--------3--3-----3--3--|-3-----3--3--3--3--3--3--|-5-----5--5--5-----5--5--|-5--5--5--5--5--5--5--5--|

(x2)

REPEAT VERSE

REPEAT CHORUS

VERSE THREE

G |-------------------------|-------------------------|-------------------------|-------------------------|
D |-------------------------|-------------------------|-------------------------|-------------------------|
A |-------------------------|-------------------------|-------------------------|-------------------------|
E |-0-----------0-----0--0--|-0--0--0--0--0--0--0--0--|-3--3-----3--3--------3--|-3-----3--3--3--3--2--2--|

G |-------------------------|-------------------------|-------------------------|-------------------------|
D |-------------------------|-------------------------|-------------------------|-------------------------|
A |-------------------------|-------------------------|-------------------------|-------------------------|
E |-0-----0--0--0-----0--0--|-0--0--0--0--0--0--0--0--|-3--3-----3--3--------3--|-3-----3--3--3--3--2--2--|

(x1)

G |-------------------------|-------------------------|-------------------------|-------------------------|
D |-------------------------|-------------------------|-------------------------|-------------------------|
A |-------------------------|-------------------------|-------------------------|-------------------------|
E |-0-----0--0--0-----0--0--|-0--0--0--0--0--0--0--0--|-3--3-----3--3--------3--|-3-----3--3--3--3--2--2--|

(x3)

REPEAT CHORUS

ENDING

G |-------------------------|-------------------------|
D |-------------------------|-------------------------|
A |-------------------------|-------------------------|
E |-0-----0--0--0-----0--0--|-0--------0--0--0--0--0--|

(x1)

G |-------------------------|-------------------------|-------------------------|-------------------------|
D |-------------------------|-------------------------|-------------------------|-------------------------|
A |-------------------------|-------------------------|-------------------------|-------------------------|
E |-3-----3--3--3-----3--3--|-3--2--2--2--2--2--2--2--|-0-----0--0--0-----0--0--|-0--0--0--0--0--0--0--0--|

(x3)

G |-------------------------|-------------------------|-------------------------|-------------------------|
D |-------------------------|-------------------------|-------------------------|-------------------------|
A |-------------------------|-------------------------|-------------------------|-------------------------|
E |-3-----3--3--3-----3--3--|-3--2--2--2--2--2--2--2--|-0-----------------------|-------------------------|