Joy Division : Ceremony

This follows the rehearsal version from the Heart And Soul box set.

INTRO

G |-------17----17-------17-|-------17----17----17----|-------17----17-------17-|-------17----17----17----|
D |-15-------15-------15----|----15----15----15----0--|-------------------------|----------------------0--|
A |-------------------------|-------------------------|-15-------15-------15----|----15----15----15-------|
E |-------------------------|-------------------------|-------------------------|-------------------------|

(x6)

G |-------------------------|-------------------------|-------------------------|-------------------------|
D |-------------------------|-------------------------|-------------------------|-------------------------|
A |-------------------------|-------------------------|-------------------------|-------------------------|
E |-13----13-13-13----13-13-|----13-13-13-13-13-13----|-8-----8--8--8-----8--8--|----8--8--8--8--8--8-----|

(x2)

VERSE

G |-------------------------|-------------------------|-------------------------|-------------------------|
D |-------------------------|-------------------------|-------------------------|-------------------------|
A |-------------------------|-------------------------|-------------------------|-------------------------|
E |-13----13-13-13----13-13-|----13-13-13-13-13-13----|-8-----8--8--8-----8--8--|----8--8--8--8--8--8-----|

(x4)

CHORUS I

G |-17----17----17----17----|-17----17----17----17----|-12----12----12----12-12-|-------12----12----12----|
D |-15-------15----15----15-|----15----15----15----15-|-10-------10----10----10-|----10----10----10----10-|
A |-------------------------|-------------------------|-------------------------|-------------------------|
E |-------------------------|-------------------------|-------------------------|-------------------------|

(x5)

BRIDGE

G |-------------------------|-------------------------|-------------------------|-------------------------|
D |-------------------------|-------------------------|-------10----10-------10-|-------10----10----10----|
A |-------15----15-------15-|-------15----15----15----|-------------------------|-------------------------|
E |-13-------13-------13----|----13----13----13----13-|-8--------8--------8-----|----8-----8-----8--------|

(x5)

CHORUS II

G |-17----17----17----17----|-17----17----17----17----|-12----12----12----12-12-|-------12----12----12----|
D |-15-------15----15----15-|----15----15----15----15-|-10-------10----10----10-|----10----10----10----10-|
A |-------------------------|-------------------------|-------------------------|-------------------------|
E |-------------------------|-------------------------|-------------------------|-------------------------|

(x6)
BRIDGE

G |-------------------------|-------------------------|-------------------------|-------------------------|
D |-15----15-15-15-15-15-15-|-15-15-15-15-17-15-14-15-|----------------------14-|----14----14-15-17-17-17-|
A |-------------------------|-------------------------|-15----15-15-15-15-15----|-15----15----------------|
E |-------------------------|-------------------------|-------------------------|-------------------------|

(x6)

OUTRO

G |-------------------------|-------------------------|-------------------------|-------------------------|
D |-------------------------|-------------------------|-------10----10-------10-|-------10----10----10----|
A |-------15----15-------15-|-------15----15----15----|-------------------------|-------------------------|
E |-13-------13-------13----|----13----13----13----13-|-8--------8--------8-----|----8-----8-----8--------|


G |-17----17----17----17----|-17----17----17----17----|-12----------------------|-------------------------|
D |-15-------15----15----15-|----15----15----15----15-|-10----------------------|-------------------------|
A |-------------------------|-------------------------|-------------------------|-------------------------|
E |-------------------------|-------------------------|-------------------------|-------------------------|